Hundred Reasons - Ill Find You Chords & Tabs

 

Ill Find You Chords & Tabs

Hundred Reasons Chords & Tabs

Version: 1 Type: Bass Tab 0 ratings
1 star 2 stars 3 stars 4 stars 5 stars
comments

Ill Find You Bass Tab

Hundred Reasons - I`ll Find You
Tabbed By: Ash Sewell
EMail: ashley_sewell@hotmail.com

e dropped down whole step to d

Intro
g-----------------------------------
d-------------------------------5555
a---555-55-555-55-555-55-555-55-----
d-----------------------------------

verse

g---------------------
d---------------------
a---------------------
d-0-2-0--0-2-0-55-7-55 play til chorus
[ Tab from: http://www.guitartabs.cc/tabs/h/hundred_reasons/ill_find_you_btab.html ]
chorus
g-----------------------------------------------------------------
d-----------------------------------------------------------------
a-5555---------------5555------00000000-5555---------------0000000
d-----5555-444444444------2222---------------5555-4444-2222-------
go for a huge slide on d string at the end before jumping into this

Ending of Chorus
g-------------
d-------55-4-5
a---0h5-------
d-0-----------

This song is our entrance music cause it is great to jump 
around to and it is Hundred Reasons entry too!
Get tabbing some more Hundred Reasons bass tabs
Comments