Hundred Reasons - If I Could Chords & Tabs

 

If I Could Chords & Tabs

Hundred Reasons Chords & Tabs

Version: 3 Type: Tab 0 ratings
1 star 2 stars 3 stars 4 stars 5 stars
comments

If I Could Tab

ok i know this isn't 100% correct but it gives you the idea. if you can do better, 
please email me when you have submitted a tab, as I'd love to read it! by the way, 
this can be played in dropped-d, but as most of their other songs are down a whole 
tone, i put this one in the same tuning. cheers
Will (priceofreality@hotmail.com)

INTRO
D----------------------------------------                  
A----------------------------------------
F----------------------------------------
C--7-7--7-7-2--7-7-7--7-7-2--7-7-7--7-7-2   listen to the cd
G--7-7--7-7-2--7-7-7--7-7-2--7-7-7--7-7-2   for how many
D--5-5--5-5-0--5-5-5--5-5-0--5-5-5--5-5-0   times on this

[ Tab from: http://www.guitartabs.cc/tabs/h/hundred_reasons/if_i_could_tab_ver_3.html ]
CHORUS
D-----------------------------------                  
A-----------------------------------
F-----------------------------------
C--7-7-7-7-7-7-7-7--9-9-9-9-9-9-9-9-  
G--7-7-7-7-7-7-7-7--9-9-9-9-9-9-9-9-
D--5-5-5-5-5-5-5-5--7-7-7-7-7-7-7-7-

D----------------------------------------
A----------------------------------------
F----------------------------------------  at the end of
C--10-10-10-10-10-10-10-12-12-12-12-12-12  the chorus,
G--10-10-10-10-10-10-10-12-12-12-12-12-12  play the intro a
D---8--8--8--8--8--8--8-10-10-10-10-10-10  couple of times.
                        <------------>
                          palm muted

VERSE
D------------  play around with rhythm on this part, this
A------------  is only what one of the guitars does, the
F------------  other goes up when this goes down.
C--7--7--5--2
G--7--7--5--2
D--5--4--3--0                      
Comments