Hundred Reasons - Falter Chords & Tabs

 

Falter Chords & Tabs

Hundred Reasons Chords & Tabs

Version: 8 Type: Tab 0 ratings
1 star 2 stars 3 stars 4 stars 5 stars
comments

Falter Tab

   
#----------------------------------PLEASE NOTE--------------------------------#
#This file is the author's own work and represents their interpretation of the#
#song. You may only use this file for private study, scholarship, or research.#
#-----------------------------------------------------------------------------#
#-- File created with Instab - http://www.pconline.com/~smcarey/instab.html --#
#-----------------------------------------------------------------------------#

Author/Artist: Hundred Reasons
Title: Falter
Album: Ideas Above Our Station
Transcribed by: Andrew Biles
Email: andrewbiles@hotmail.com

The hardest thing about this song is the tuning really.  Going to see them soon,
and I've had this tabbed up for ages now, so I just thought I'd put it up. Great
song to play.

Tuning D, G, D, G, B, e (thickest 2 strings dropped a step)

|----------------------------------------------------------------------------
|---------------2-3----------------2-3----------------2-3----------------2-3-
|-------------2------------------2--------0---------2--------0---------2-----
|-----0-h2-h4------------0-h2-h4------------0-h2-h4------------0-h2-h4-------
|---2------------------2----------------0------------------0-----------------
|-0------------------0-------------------------------------------------------
[ Tab from: http://www.guitartabs.cc/tabs/h/hundred_reasons/falter_tab_ver_8.html ]
|----------------------------------------------------------0-
|----------------------------------------------------------3-
|----------------------------------------------------------2-
|-5-5-5--4-4-4-4-4---5-5-5--4-4-4-4-4---5-5-5--4-4-4-4-4---0-
|-7-7-7--7-7-7-7-7---5-5-5--5-5-5-5-5---4-4-4--4-4-4-4-4-----
|------------------------------------------------------------

|----------------------------------------
|----10----10----10----10----12-10----10-
|-11----11----11----11----11-------11----
|----------------------------------------
|----------------------------------------
|----------------------------------------

any questions? andrewbiles@hotmail.com
______________________________
Lyrics (www.letssingit.com):

In my hands, good fortune
Caress my equal, with slightest touch
The sound of your voice keeps me still
And I'm sorry I, avoid your questions

And I'd never falter now we're even
(EXPLAIN WHY YOU WILL)
Take while you can its never even
(WHILE WE LAY STILL)
And I'd never falter now we're even
(EXPLAIN WHY YOU WILL)
Take while you can its never even
(WHILE WE LAY STILL)

A place to run, it's colder
And peace of mind takes,
It's own time for us
And in the same breath, we argue
And it must be a sign of closeness I guess

And I'd never falter now we're even
(EXPLAIN WHY YOU WILL)
Take while you can its never even
(WHILE WE LAY STILL)
And I'd never falter now we're even
(EXPLAIN WHY YOU WILL)
Take while you can its never even
(WHILE WE LAY STILL) Here alone

And I'd never falter now we're even
(EXPLAIN WHY YOU WILL)
Take while you can its never even
(WHILE WE LAY STILL)
And I'd never falter now we're even
(EXPLAIN WHY YOU WILL)
Take while you can its never even
(WHILE WE LAY STILL) (X2)
Comments