Hundred Reasons - Falter Chords & Tabs

 

Falter Chords & Tabs

Hundred Reasons Chords & Tabs

Version: 7 Type: Tab 0 ratings
1 star 2 stars 3 stars 4 stars 5 stars
comments

Falter Tab

----------------------------------------------------------------------------
			     Falter - Hundred Reasons
----------------------------------------------------------------------------
Tabbed by: Mark Oliver
Email: rooneyrules@msn.com

Tuning: drop bottom E down a tone to D



MAIN RIFF
e|-------------------------------------------------------------------|
B|-------------------------------------------------------------------|
G|--------------6/7-------------6/7-------------6/7-------------6/7--|
d|------0-----7---------0-----7-------5-------7-------5-------7------|
A|----0---7/9---------0---7/9-----------5-7/9-----------5-7/9--------|
D|--0---------------0---------------5---------------5----------------|


BRIDGE
e|-----------------------------------|
B|-----------------------------------|
G|-----------------------------------|
d|-----------------------------------|
A|--5-5-5-5-5-5-5-5-5-5-5-5-5-5-5----|
D|--5-5-5-5-5-5-5-5-5-5-5-5-5-5-5-0--|

[ Tab from: http://www.guitartabs.cc/tabs/h/hundred_reasons/falter_tab_ver_7.html ]
CHORUS
e|-----------------------------------------------------------------|
B|--------------------------------------------------0--------------|
G|--------------------------------------------------5-let-ring-----|
d|--5-5-5-4-4-4-4-4-5-5-5-4-4-4-4-4-5-5-5-4-4-4-4-4-5--------------|
A|--5-5-5-5-5-5-5-5-3-3-3-3-3-3-3-3-2-2-2-2-2-2-2-2-3--------------|
D|--------------------------------------------------------------0--|


INTERLUDE(guitar 1 with guitar 2 playing main riff all the way through)
e|-----------------------7--------|
B|--7-9--7-9--7-9--7-9-7---9-7-9--|
G|--------------------------------|
d|--------------------------------|
A|--------------------------------|
D|--------------------------------|


STURCTURE
INTRO: MainRiffx2
VERSE 1: MainRiffx3.5
BRIDGE: Bridgex1
CHORUS: Chorusx4
VERSE 2: MainRiffx3.5
BRIDGE: Bridgex1
CHORUS: Chorusx4
INTERLUDE: Interludex8
CHORUS & OUTRO: Voice onlyx2 then Chorusx6


LYRICS
verse 1
in my hands, good fortune
caress my equal, with slightest touch
the sound of your voice, keeps me still
and im sorry i, avoid your questions

verse 2
a place to run, its colder
and piece of mind takes, its own time for us
in the same breath, we argue
and it must be a sign of closeness i guess

chorus
and id never falter now were even, explain why you will
take while you can its never even, while we lay still
and id never falter now were even, explain why you will
take while you can its never even, while we lay still
here alone
============================================================================
Comments