Hundred Reasons - Falter Chords & Tabs

 

Falter Chords & Tabs

Hundred Reasons Chords & Tabs

Version: 6 Type: Tab 0 ratings
1 star 2 stars 3 stars 4 stars 5 stars
comments

Falter Tab

   
Ive taken two parts of the others tabs, two make this the final correct version of
falter, because its more fluent played this way.

drop-D tuning
/= slide
[ Tab from: http://www.guitartabs.cc/tabs/h/hundred_reasons/falter_tab_ver_6.html ]
E-------------------------
B-------------------------
G----------------6-7------
D-------0--2-4/7----------    x2
A-----0-------------------
E---0---------------------

E-------------------------
B-------------------------
G------0----------6-7-----
D--------0--2-4/7---------    x2
A-------------------------
E---5---------------------

As for the chorus look at falter3.
l am going to try and correctly tab ill find you and silver.
Comments