Hundred Reasons - Falter Chords & Tabs

 

Falter Chords & Tabs

Hundred Reasons Chords & Tabs

Version: 4 Type: Tab 0 ratings
1 star 2 stars 3 stars 4 stars 5 stars
comments

Falter Tab

Fantastic song - this tab sounds brilliant to me, any queries/corrections email me please 
cuz i'll wanna know them (priceofreality@hotmail.com). i'm just doing a tab for 'if i could',
and somebody please put a correct 'i'll find you'!
cheers y'all, will.

INTRO:
D ---------------------0
A ------------------4---
F ---------------4------   x2
C -------2--4--6--------
G ----2-----------------
D -0--------------------


D ---------------------0
A ------------------4---
F ----2----------4------   x2
C -------2--4--6--------
G -0--------------------
D ----------------------


[ Tab from: http://www.guitartabs.cc/tabs/h/hundred_reasons/falter_tab_ver_4.html ]
CHORUS
D------------------------------------------------
A------------------------------------------------
F------------------------------------------------
C--7--7--7--6--6--6--6--6--7--7--7--6--6--6--6--6
G--------------------------5--5--5--5--5--5--5--5
D--0--0--0--0--0--0--0--0------------------------


D--------------------------0---------------------
A--------------------------3---------------------
F--------------------------2---------------------
C--7--7--7--6--6--6--6--6--0---------------------
G--4--4--4--4--4--4--4--4------------------------
D------------------------------------------------


"SOLO"
D------------------------------------------------
A-------12----12----12----12----14-12----12------
F----13----13----13----13----13-------13---------
C------------------------------------------------
G------------------------------------------------
D------------------------------------------------

The reast is just about working out when to play each bit, it's not hard.
Enjoy!
Comments