Hundred Reasons - Avalanche Chords & Tabs

 

Avalanche Chords & Tabs

Hundred Reasons Chords & Tabs

Version: 1 Type: Tab 0 ratings
1 star 2 stars 3 stars 4 stars 5 stars
comments

Avalanche Tab

this is the last song of the album
i dont think this is 100% correct but it is a starting point

comments - kevsis@hotmail.com

Intro - Play once
e----------------------------------------------------------------------------------------------
b----------------------------------------------------------------------------------------------
g--------------5------------5-------------5-------------5--------------------------------------
d---5--3--2--5--5--3--2--5--5--3--2--5--5--3--2--5---------------------------------------------
a--------------3------------3------------------------3-----------------------------------------
e----------------------------------------------------------------------------------------------

Verse - Repeat a Few Times
[ Tab from: http://www.guitartabs.cc/tabs/h/hundred_reasons/avalanche_tab.html ]
e------------3------------3------------3-------------------------3-----------3------------------------
b----------------------------------------------------------------------------------------3-----------1
g------------0------------0------------0------------5------------0----------0-------------------------
d--3--2---------3--2----------3--2---------5--3--2--5--3--2---------3--2-------3--2---------3--2------
a---------3------------3-------------3--------------3--------3-------------3---------3-------------3--
e-----------------------------------------------------------------------------------------------------

Chorus - repeat these chords a few times then------------------->                        

e--3---------3----------------------------------------------------------2----3----------------------
b--6---------3----------------------------------------------------------2----3----------------------
g--5---------5----------------------------------------------------------4----5----------------------
d--3---------5----------------------------------------------------------4----5----------------------
a------------3----------------------------------------------------------2----3----------------------
e---------------------------------------------------------------------------------------------------

end on c
Comments