Hund Bob - Den Lilla Planeten Chords & Tabs

 

Den Lilla Planeten Chords & Tabs

Hund Bob Chords & Tabs

Version: 1 Type: Tab 0 ratings
1 star 2 stars 3 stars 4 stars 5 stars
comments

Den Lilla Planeten Tab

Bob hund - Den lilla planeten.

Intro.

Bass:

E -5-5-5-5-5-5-5-5-5-5 and so on and so on...



Guitar:

First part.

e---------0----------0-------------
B---5--5----------3--------1-------
G------------7----------5----------
D----------------------------------
A----------------------------------
E-------------------------------3--


Second part.

[ Tab from: http://www.guitartabs.cc/tabs/h/hund_bob/den_lilla_planeten_tab.html ]
e---------0------------0---------------
B---5--5------------3--------3/5-------
G------------7------------5------------
D--------------------------------------
A--------------------------------------
E-------------------------------------5

After you have played the firts part one time, at the end of the second time you do like this:

(Just listen to the song to get the parts right.)


e--------------10----
B---3/12---12--------
G------------------11
D--------------------
A--------------------
E--------------------
Comments