Humble Pie - Take Me Back Chords & Tabs

 

Take Me Back Chords & Tabs

Humble Pie Chords & Tabs

Version: 2 Type: Tab 0 ratings
1 star 2 stars 3 stars 4 stars 5 stars
comments

Take Me Back Tab

   
#----------------------------------PLEASE NOTE---------------------------------#
#This file is the author's own work and represents their interpretation of the #
#song. You may only use this file for private study, scholarship, or research. #
#------------------------------------------------------------------------------#

TAKE ME BACK
°°°°°°°°°°°°°°°°°°°°°°°°°°
writtten by Peter Frampton
tab by Shayne Davis
pootweet@hotmail.com

Intro:
       
E---------0--0--0--0--0---0---0---0----0----
B---------7--5--7--9--10--12--10—-14---12---               
G---------0--0--0--0--0---0---0---0----0----   
D---------0--0--0--0--0---0---0---0----0---- repeat last 3 chords  
A----2----5--3—-5—-7--8---10--8—--12---10---  
E--3----------------------------------------

 (the 1st 2 notes are bass notes,) then 2 finger chords, 
  the verse pattern is half the intro plus these chords

(verse pattern)
           D    C       Dm               Asus4         G     D   G
E----------0----0-------0----------------0-------------3-----x---3---
B----------7----5-------3----------------3-------------0-----0---0---             
G----------0----0-------2----------------0-------------0-----2---0---   
D----------0----0-------3----------------2-------------0---------0---
A-------2--5--—-3-------0------------------------------2---------2---
E--3---------------------------------------------------3---------3--- 

[ Tab from: http://www.guitartabs.cc/tabs/h/humble_pie/take_me_back_tab_ver_2.html ]
                       D    C     Dm            Asus4               G
E----------------------0----0-----0-------------0-------------------3--
B----------------------7----5-----3-------------3-------------------0--    
G----------------------0----0-----2-------------0-------------------0--
D----------------------0----0-----3-------------2-------------------0--
A----------—----2------5----3-----0-------------0-------------------2--
E—0-1-2-3-----------------------------------------------------------3--
    


    D                                     D5
E---x-------------------------------------0---------------------
B---0-------------------------------------3---------------------
G---2------------------2------2-----------2---------------------             
D---------------------------------------------------------------
A---------------------------------------------------------------
E-------3--0--1--2--3------3-------3--0-------------------------
                                      


          C  D  C   G         Em
E------------------------0--0--0---3------------------------------
B------------------------5--7--5---0----------0-------------------               
G------------------------0--0--0-- 0----------0------------------- 
D------------------------0--0--0---0----------2-------------------
A------------—-------2---3--5--3---2----------2-------------------
E------------------3---------------3-----3—2--0-------------------
         

                 C      Dm         C  D  C       Dm           
E----------------0------0----------0--0—-0-------0--------
B----------------3------3----------5--7—-5-------3--------               
G----------------0------2----------0--0—-0-------2-------- 
D----------------2------3----------0--0—-0-------3--------
A------------—---3------0--------2-3--5--3-------0--------
E----------------0--------------3-------------------------
   

           Asus4
E----------0-----------------------------------------------------------
B----------3-----------------------------------------------------------               
G----------0-----------------------------------------------------------
D----------2-----------------------------------------------------------
A----------0--—--------------------------1-3—1---------------1-3-1-----
E-------------------------3-3-3-1-2-3-3-3-----3-3-3-1-2-3-3-3-------3--
   

Yes!………those guys could play, ………man.
Comments