Human League - Don't You Want Me Chords & Tabs

 

Don't You Want Me Chords & Tabs

Human League Chords & Tabs

Version: 1 Type: Bass Tab 0 ratings
1 star 2 stars 3 stars 4 stars 5 stars
comments

Don't You Want Me Bass Tab

Don't You Want Me by The Human League 

Tabbed by Sponge
 


|-------------------------|--------------------------|---
|-------------------------|--------------------------|---
|-------     %       -----|------     %      --------|---	Drums Only
|-------------------------|--------------------------|---           

|-------------------------|--------------------------|---
|-------------------------|--------------------------|---	(Intro)
|---0--0---------0--------|---0------0--3------------|---
|----------0-3------------|-------0------------------|---

|-------------------------|--------------------------|---
|-------------------------|--------------------------|---
|---0—0----------0--------|-0--3-------0—------------|---
|-----------0—3-----------|--------3-----------------|---

|-------------------------|--------------------------|---
|-------------------------|--------------------------|---
|---0—0----------0--------|----0-------0--3----------|---
|-----------0--3----------|--------0-----------------|---

|-------------------------|--------------------------|---
|-------------------------|----0--2--0---------------|---
|---0--0------------0-----|-------------3----3----0--|---
|------------0--3---------|--------------------------|---
			



|-------------------------|--------------------------|---
|--3-----3----3--3---3--3-|--5----5-----5-5-----5-5--|---	X8	(VERSE - Male Vocal)
|-------------------------|--------------------------|---
|-------------------------|--------------------------|---


[ Tab from: http://www.guitartabs.cc/tabs/h/human_league/dont_you_want_me_btab.html ]
||-------------------------|--------------------------|----
||.-7-----7----7-7----7-7--|--------------------------|----		(Bridge)
||.------------------------|--7----7-----7-7-----7--7-|----
||-------------------------|--------------------------|----

|-------------------------|--------------------------||----
|-------------------------|-------------------------.||----
|--8-----8----8-8----8--8-|----5--5--5--10----9-----.||----
|-------------------------|--------------------------||----
			    1  &  2  &	3  &  4  &
				
|--------------------------|--------------------------|----	
|--------------------------|--------------------------|----
|--------------------------|--------------------------|----
|---5-5-5-5-5-5-5-5--------|--7-7-7-7-7-7-7-7-7-------|----

|-------------------------|---------------------------|----
|-------------------------|---------------------------|----
|-------------------------|--7-7-7-7------------------|----
|--8-8-8-8-8-8-8-8--------|-----------8-8-7 \ 5-------|----



||-------------------------|--------------------------|---
||.-3-----3----3--3---3--3-|--5----5-----5-5-----5-5--|---		(Chorus)
||.------------------------|--------------------------|---
||-------------------------|--------------------------|---

|-------------------------|--------------------------||---
|--3-----3----3--3---3--3-|--5----5-----5-5-----5-5-.||---		
|-------------------------|-------------------------.||---
|-------------------------|--------------------------||---




|-------------------------|--------------------------|---
|--3-----3----3--3---3--3-|--5----5-----5-5-----5-5--|---		x8  (VERSE - Female Vocal)
|-------------------------|--------------------------|---
|-------------------------|--------------------------|---


	Bridge 
	CHORUS

	INTRO

	Chorus
	Chorus
	Chorus (Fades over last 4 bars)

	





Comments