Human League - Dont You Want Me Baby Chords & Tabs

 

Dont You Want Me Baby Chords & Tabs

Human League Chords & Tabs

Version: 2 Type: Bass Tab 0 ratings
1 star 2 stars 3 stars 4 stars 5 stars
comments

Dont You Want Me Baby Bass Tab

This is just the intro. If you want to do the whole song then
just follow the tune of the vocals. You should know the rhytmn


|-------------------------------------------------------|
|-------------------------------------------------------|
|---0--0---------0-----------0------0--3----------------|
|----------0-2-------------------2----------------------|
[ Tab from: http://www.guitartabs.cc/tabs/h/human_league/dont_you_want_me_baby_btab_ver_2.html ]
|-------------------------------------------------------|
|-------------------------------------------------------|
|---0?0----------0---------3-------3?2------------------|
|-----------0?2----------------2------------------------|

|-------------------------------------------------------|
|-------------------------------------------------------|
|---0?0----------0------------0-------0--3--------------|
|-----------0--2--------------------2-------------------|

|--------------------------------|
|--------------------------------|
|---0--0------------0------------|
|------------0--2----------------|
Comments