Hum - Stars Chords & Tabs

 

Stars Chords & Tabs

Hum Chords & Tabs

Version: 2 Type: Bass Tab 0 ratings
1 star 2 stars 3 stars 4 stars 5 stars
comments

Stars Bass Tab

   
Stars-Bass tab

Hum-You'd Prefer an Astronaut

This is the first tab I've written, but this is a relatively easy song
without too many riffs to memorize...

Dropped-D tuning (D,A,D,G)

Guitar does intro, when dist. kicks in this riff begins
G|-------------------------------------------------------------------|
D|-------------------------------------------------------------------|
A|--------77-77------------------------------------------------------|
D|--0-02h4-----------------------------------------------------------|
[ Tab from: http://www.guitartabs.cc/tabs/h/hum/stars_btab_ver_2.html ]
At 1:55 or when Chorus begins it switches to this
G|-------------------------------------------------------------------|
D|-------------------------------------------------------------------|
A|----------------------------------------------------------77-77----|
D|5-5555555444444440-002h4h20002h4h2-5-5555555444444440-02h4---------|

Bridge-repeats until Chorus riff comes back
G|-------------------------------------------------------------------|
D|-------------------------------------------------------------------|
A|-------------------------------------------------------------------|
D|--0-00200400-02h4--------------------------------------------------|

All the riffs used throughout the song are there, just figure out
how many times they're used and you've figured out the song...

"WyLdd KaRrDe"
Michael Wilson

Comments