Huguet Adria - Pink Panther Chords & Tabs

 

Pink Panther Chords & Tabs

Huguet Adria Chords & Tabs

Version: 1 Type: Tab 0 ratings
1 star 2 stars 3 stars 4 stars 5 stars
comments

Pink Panther Tab

PINK PANTHER

e|---------------------------| x2
B|---------------------------|
G|---------------------------|
D|---------------------------|
A|---4--5--6--7--------------|
E|----------------7--0-------|

e|----------------------------------------------------|
B|----------------------------------------------------|
G|---------------------------------5--4---------------|
D|---------------4--5--------4--5-----------5--9--7---|
A|---4--5--6--7--------6--7--------------7------------|
E|----------------------------------------------------|
[ Tab from: http://www.guitartabs.cc/tabs/h/huguet_adria/pink_panther_tab.html ]
e|----------------------------------------------------|
B|----------------------------------------------------|
G|---------------------------------5--4-------7--6----|
D|---------------4--5--------4--5----------5----------|
A|---4--5--6--7--------6--7--------------7------------|
E|----------------------------------------------------|

e|----------------------------------------------------|
B|----------------------------------------------------|
G|---------------------------------5--4---------------|
D|---------------4--5--------4--5-----------5--9--7---|
A|---4--5--6--7--------6--7--------------7------------|
E|----------------------------------------------------|

e|-------------------------------------------------------|
B|--------------------------------------------------------|
G|---9--7----------------------------------------------|
D|---------9--7--5---7--7--7--7--5-----------------|
A|------------------7-----------------7--5--7---------|
E|----------------------------------------------7--0---|

YEAH, VULL DEDICAR AQUESTA CANÇO ALS AMICS, ALS MES QUE AMICS I AL 
MILLOR GRUP DEL MON: PIMP CARROT
Comments