Huey Lewis And The News - Power Of Love Chords & Tabs

 

Power Of Love Chords & Tabs

Huey Lewis And The News Chords & Tabs

Version: 2 Type: Tab

Power Of Love Tab

   
Intro prt 1                       $$
   G C           C/E   F   G     G C           C/E F   G
|--3-0---------------------------3-0---------------------------| X4
|--3-1---------------------------3-1---------------------------|
|--0-0-0-0-0-0-0-0-0-------------0-0-0-0-0-0-0-0-0-------------|
|--0-2-2-2-2-2-2-2-2-3-3-5/5-5-5-0-2-2-2-2-2-2-2-2-3-3-5/5-5-5-|
|--2-3-3-3-3-3-3-3-3-3-3-5/5-5-5-2-3-3-3-3-3-3-3-3-3-3-5/5-5-5-|
|--3-------------0-0-1-1-3/3-3-3-3-------------0-0-1-1-3/3-3-3-|

Intro prt 2
    Cm7            F              Cm7              F     **Bb F
|--3-3-3-3-3-3-3-3-1-1-1-1-1-1-1-1-3-3-3-3-3-3-3-3-1-1-1-1-----|
|--4-4-4-4-4-4-4-4-1-1-1-1-1-1-1-1-4-4-4-4-4-4-4-4-1-1-1-1-----|
|--3-3-3-3-3-3-3-3-2-2-2-2-2-2-2-2-3-3-3-3-3-3-3-3-2-2-2-2-3---|
|--5-5-5-5-5-5-5-5-3-3-3-3-3-3-3-3-5-5-5-5-5-5-5-5-3-3-3-3-3-3-|
|--3-3-3-3-3-3-3-3-----------------3-3-3-3-3-3-3-3---------1-3-|
|------------------------------------------------------------1-|

Verse
    C  Bb  C                   Bb  C                   Bb F 2nd time
|-------------------------------------------------- X2 -----------|
|--------------------------------------------------    -----------|
|--5-5-3-3-5-5-5-5-5-5-5-5-5-5-3-3-5-5-5-5-5-5-5-5-    -3---------|
|--5-5-3-3-5-5-5-5-5-5-5-5-5-5-3-3-5-5-5-5-5-5-5-5-    -3-3/------|
|--3-3-1-1-3-3-3-3-3-3-3-3-3-3-1-1-3-3-3-3-3-3-3-3-    -1-3/------|
|--------------------------------------------------    ---1/------|

Chorus
   G C           C/E F   G       G C           C/E F    G
|--3-0---------------------------3-0---------------------------|
|--3-1---------------------------3-1---------------------------|
|--0-0-0-0-0-0-0-0-0-------------0-0-0-0-0-0-0-0-0-------------|
|--0-2-2-2-2-2-2-2-2-3-3-5/5-5-5-0-2-2-2-2-2-2-2-2-3-3-5/5-5-5-|
|--2-3-3-3-3-3-3-3-3-3-3-5/5-5-5-2-3-3-3-3-3-3-3-3-3-3-5/5-5-5-|
|--3-------------0-0-1-1-3/3-3-3-3-------------0-0-1-1-3/3-3-3-|

   G C           C/E F   G     Bb  F   G
|--3-0-------------------------------------|
|--3-1-------------------------------------|
|--0-0-0-0-0-0-0-0-0-----------3-3---------|
|--0-2-2-2-2-2-2-2-2-3-3-5/5-5-3-3-3-3-5-5-|
|--2-3-3-3-3-3-3-3-3-3-3-5/5-5-1-1-3-3-5-5-|
|--3-------------0-0-1-1-3/3-3-----1-1-3-3-|



[ Tab from: http://www.guitartabs.cc/tabs/h/huey_lewis_and_the_news/power_of_love_tab_ver_2.html ]
Verse 2
    C  Bb  C                   Bb  C                   Bb F 2nd time ends with
|-------------------------------------------------- X2 -----------|
|--------------------------------------------------    -----------|
|--5-5-3-3-5-5-5-5-5-5-5-5-5-5-3-3-5-5-5-5-5-5-5-5-    -3---------|
|--5-5-3-3-5-5-5-5-5-5-5-5-5-5-3-3-5-5-5-5-5-5-5-5-    -3-3/------|
|--3-3-1-1-3-3-3-3-3-3-3-3-3-3-1-1-3-3-3-3-3-3-3-3-    -1-3/------|
|--------------------------------------------------    ---1/------|

Chorus
   G C           C/E F   G       G C           C/E F    G
|--3-0---------------------------3-0---------------------------|
|--3-1---------------------------3-1---------------------------|
|--0-0-0-0-0-0-0-0-0-------------0-0-0-0-0-0-0-0-0-------------|
|--0-2-2-2-2-2-2-2-2-3-3-5/5-5-5-0-2-2-2-2-2-2-2-2-3-3-5/5-5-5-|
|--2-3-3-3-3-3-3-3-3-3-3-5/5-5-5-2-3-3-3-3-3-3-3-3-3-3-5/5-5-5-|
|--3-------------0-0-1-1-3/3-3-3-3-------------0-0-1-1-3/3-3-3-|

   G C           C/E F   G     Bb  F   G
|--3-0-------------------------------------|
|--3-1-------------------------------------|
|--0-0-0-0-0-0-0-0-0-----------3-3---------|
|--0-2-2-2-2-2-2-2-2-3-3-5/5-5-3-3-3-3-5-5-|
|--2-3-3-3-3-3-3-3-3-3-3-5/5-5-1-1-3-3-5-5-|
|--3-------------0-0-1-1-3/3-3-----1-1-3-3-|

(just in case)

Eb G7 Cm7 Ab Eb/G Fm7 Eb Ab Gsus4 G Cm7 F Cm7 F

Back to chorus

Chorus
   G C           C/E F   G       G C           C/E F    G
|--3-0---------------------------3-0---------------------------|
|--3-1---------------------------3-1---------------------------|
|--0-0-0-0-0-0-0-0-0-------------0-0-0-0-0-0-0-0-0-------------|
|--0-2-2-2-2-2-2-2-2-3-3-5/5-5-5-0-2-2-2-2-2-2-2-2-3-3-5/5-5-5-|
|--2-3-3-3-3-3-3-3-3-3-3-5/5-5-5-2-3-3-3-3-3-3-3-3-3-3-5/5-5-5-|
|--3-------------0-0-1-1-3/3-3-3-3-------------0-0-1-1-3/3-3-3-|

   G C           C/E F   G     Bb  F   G
|--3-0-------------------------------------|
|--3-1-------------------------------------|
|--0-0-0-0-0-0-0-0-0-----------3-3---------|
|--0-2-2-2-2-2-2-2-2-3-3-5/5-5-3-3-3-3-5-5-|
|--2-3-3-3-3-3-3-3-3-3-3-5/5-5-1-1-3-3-5-5-|
|--3-------------0-0-1-1-3/3-3-----1-1-3-3-|


Finish on C power chord