Hudson - Guide Dog Chords & Tabs

 

Guide Dog Chords & Tabs

Hudson Chords & Tabs

Version: 1 Type: Tab 0 ratings
1 star 2 stars 3 stars 4 stars 5 stars
comments

Guide Dog Tab

   
Guide Dog by Hudson

this song is close to my heart so play it with great pride and sing it like you mean it

E                         F#                    A     E                 

[ Tab from: http://www.guitartabs.cc/tabs/h/hudson/guide_dog_tab.html ]
-----------------------------------------------------------------------------
-------------------------------------------------------------------------
--------4---------------------2 2-2-2-2--1------------------------------------------
-----6-----6--4--2---------------------------2------------------------------------
----------------------4----------------------------------------------------
---------------------------------------------------------------------------

Hey little guide dog oh what seems to be so wrong
keep being my guide dog help me to stroll along
the other dogs they only envy what you've got
they have to wait outside while you go in the shop

Lsus2                E

dont take my bitch away from me
you know that i cannot see
this is not the way i wanted it to be

B                    A

leave me leave me................guide dog



























Lsus 2

-   0------------
--  2----------
--- 1-------
----2---------
----0-------
----0---------
Comments