Howie Day - Madrigals Chords & Tabs

 

Madrigals Chords & Tabs

Howie Day Chords & Tabs

Version: 1 Type: Tab 0 ratings
1 star 2 stars 3 stars 4 stars 5 stars
comments

Madrigals Tab

   
intro/verse

    E              Bm  A   E                C#m  A   E  F#m  A
e |-0--0--0--2--|--0---0---0---0---0---2--|--0---0---0---2---0----------
b |-0--0--0--0--|--3---0---0---0---0---0--|--5---0---0---2---2----------
g |-1--2--1--1--|--4---6---1---2---1---1--|--6---6---1---2---2----------
d |-2--2--2--2--|--4---7---2---2---2---2--|--6---7---2---4---2----------
a |-2--2--2--2--|--2---7---2---2---2---2--|--4---7---2---4---0----------
E |-0--0--0--0--|------0---0---0---0---0--|------0---0---2--------------
                 "i'm not so sure..."       "i'm alright i'm sending..."

chorus
[ Tab from: http://www.guitartabs.cc/tabs/h/howie_day/madrigals_tab.html ]
    E   B  F#m  A
e |-0---0---2---0--------
b |-0---0---2---2--------
g |-1---8---2---2--------
d |-2---9---4---2--------
a |-2---9---4---0--------
E |-0---0---2---0--------
   "you told everyone..."

THE part

   C#m  B   Bm  A    C#m  B   Bm  A    F#m  A
e |-0---0---0---0---|-0---0---0---0-----2---0---
b |-5---0---3---0---|-5---0---3---0-----2---2---
g |-6---8---4---6---|-6---8---4---6-----2---2---
d |-6---9---4---7---|-6---9---4---7-----4---2---
a |-4---9---2---7---|-4---9---2---7-----4---0---
E |-----7-------5---|-----7-------5--4--2-------
                     * last time through
Comments