Howard Shore - Concerning Hobbits Chords & Tabs

 

Concerning Hobbits Chords & Tabs

Howard Shore Chords & Tabs

Version: 9 Type: Tab 0 ratings
1 star 2 stars 3 stars 4 stars 5 stars
comments

Concerning Hobbits Tab

Concerning Hobbits 
E||-----------------------------------------------------------|
B||-----------------------------------------------------------|
G||-----------------------------------------------------------|
D||-----------------------------------------------0-----------|
A||-----------------------------------------0----------0------|
D||------------------------------------0--------------------0-|

E||----------------2---2-5-2-0-2--------2--5--7--10-9s10s9--|
B||--------------3------------------3----------0--------------|
G||--------------------------------------------0--------------|
D||-------0---------------------------------------------------|
A||----0------------------------------------------------------|
D||-0------------0------------------0-0-0------5-5------------|

E||5-2--2h3p2p0------0---2---5---2--0--0---------2----5---7---7-|
B||----------------3-------------------3--3--3-------------0------|
G||--------------------------------------------------------0------|
D||---------------------------------------------------------------|
A||--0-0----------------------0-----------------------------------|
D||----------------0-------------------------0--0----------5-5----|

E||--5---2--2---0--0-2-0--------------------------------0-2-2-2--5|
B||---------0-------------3---------------------------3------------|
G||----------------------------------------------------------------|
D||-------------------------------0-------------0------------------|
A||---------2-2-0-0-----------0-------0------0-----0--------------0|
D||-----------------------0---------------0-----------0------------|

E||-0------0-------------------------------------------0--2--2|
B||----3-----------02-2-2-3--0------------------2--3---------|
G||-------------2-------------------2---------2---------------|
D||------------------------------4----2-----------------------|
A||----------0--2---------------------0--0--0-----------------|
D||------------------------------4------------2-----0---------|

E||-2---5---2--0------0-----------------10---9---5---2--3--0--|
B||---------------3-------2--3---0----------------------------|
G||-----------------------------------------------------------|
D||-----------------------------------------------------------|
A||-----0-------------0----------2-2-----------------0-----0--|
D||-----0---4---------------------------5---------------------|

E||------0--2-----2--3--50-------0---2-2-2---0---2--4--4--4---|
B||---3-----3---3-------2-------3------------------------------|
G||------------------------------------------------------------|
D||------------------------------------------------------------|
A||---------------------0----0---------------------------------|
D||---------0-0-----------------0------------------------------|

E||------2---4--6--6--6--6---------------------|
B||--------------------------------------------|
G||----------------6--6------------------------|
D||------------------------------------7-------|
A||--------------------------------------------|
D||------4---------------4---------------------|


E||--------------------0-----------2--------------------------|
B||-----------3-----3-----3-----------3----------12-----------|
G||--------2-----2-------------2---------2--------------------|
D||-----------------------------------------------------------|
A||-----------------------------------------------------------|
D||-----0-----------------------------------------------------|

E||------------------------------------------------3--2---0---|
B||-----------------------3---------------0-----3---------2---|
G||-----------4---------------4-----------0---------------2---|
D||--------4----4----------------4--------0---------------0---|
A||---2-------------2---------------2-------------------------|
D||---------------------------------------5-------------------|
[ Tab from: http://www.guitartabs.cc/tabs/h/howard_shore/concerning_hobbits_tab_ver_9.html ]
E||-----------------------------------------------------------|
B||--------------------------------------------------------0--|
G||-----------------------------------------------------------|
D||--------4-4-----2-2-----4-4-----0-----2---0---4---0--4-----|
A||--------5-5-----3-3--2--5-5-----2-----3---2-------------2--|
D||----0---------4--------------4-----5-----------------------|

E||-------------------------------0---0--2--3-----0--2---5--2-|
B||--------0---2--3-------3--------------------3--------------|
G||---------------0---2-------2-------------------------------|
D||-----4-----------------------------------------------------|
A||--2----------------------------0------------2--------------|
D||---------------5-------------------------------------------|

E||----5-----7---2---7---9--10---9----5---2---3---2--0---2--0-|
B||-----------------------------------------------------------|
G||-----------------------------------------------------------|
D||-----------------------------------------------------------|
A||---------------------------------------0----------0--------|
D||----------9--------------5---------------------------------|

E||----------2--2--2---5--0-----0-----------------------------|
B||-3--3--2------------------3-------------2-2-2--3--0--------|
G||------------------------------------2----------------------|
D||-----------------------------------------------------------|
A||--------------------0-----------0---2----------------------|
D||-0--0--0---------------------------------------------------|

E||--------------------------5---0----------------------------|
B||----------------------------------3---5--2-----------0-----|
G||------2---------------------------0------------------------|
D||---4------2---4---0---0--------------------2--2--2---------|
A||----------0--------------------------------3--3--3---2-----|
D||---4--------------0---0------------------------------------|



E||-----------------------------------0---2---5--20----------|
B||------------------------------3--------------------3-------|
G||---------------0-----2-------------------------------------|
D||---4---4---4------0------0---------------------------------|
A||---5---5---5------2--0---2----0--------------------0--0----|
D||---------------5--------------0--------------------0--0----|

E||--2-----5-----7----10-----9-----5-----2---3----2----0------|
B||--------------0--------------------------------------------|
G||--------------0--------------------------------------------|
D||-----------------------------------------------------------|
A||--------------------------------------0-------------0------|
D||--------------5--------------------------------------------|

E||-----0---2----5-----2---0---------0-----------2-----5------|
B||-3---------------------------3---------3-------------------|
G||-----------------------------------------------------------|
D||-----------------------------------------------------------|
A||---------0-----------------------------0--0----------------|
D||---------0-----------------------------0--0----------------|

E||---7----7---5---2---2-2-3-2--0------------------------------------|
B||-----------------------------------3-2---3------------------------|
G||-------------------------------------------------------------------|
D||------------------------------------------0------------------------|
A||--------------------2-2-------0-0---------0------0-----0------0----|
D||---5--5-----------------------------------0------0-----0------0----|

E||-----------------------------------------------------------|
B||-----3-----------------------------------------------------|
G||-----------------------------------------------------------|
D||----------4----4-------------------------------------------|
A||----------5----5-------------------------------------------|
D||-----------------------------------------------------------|
Comments