Hot Water Music - Trusty Chords Chords & Tabs

 

Trusty Chords Chords & Tabs

Hot Water Music Chords & Tabs

Version: 2 Type: Tab 0 ratings
1 star 2 stars 3 stars 4 stars 5 stars
comments

Trusty Chords Tab

   
Hot water music
   trusty chords
--------------------
*intro/verse*:

E|----------------------------------
B|----------------------------------
G|-7-7-7-7-7-7-7-7--7-7-7-7-7-7-7-7-
D|----------------------------------
A|-5-5-5-5-5-5-5-5------------------
E|------------------7-7-7-7-5-5-5-5-

    gtr. 2
       E|-----------------------------
       B|-----------------------------
       G|--------9-11-9-7-------------
       D|-7-7-7-----------------------
       A|-5-5-5-----------9-9-9-7-7-7-
       E|-----------------7-7-7-5-5-5-

*pre-chorus* (heyeahye...)

E|---------------------------
B|---------------------------
G|---------------------------
D|---------------------------
A|-7-7-7-7-7-7-7-7-5-5-5-5-5-
E|-5-5-5-5-5-5-5-5-3-3-3-3-3-

*chorus*
[ Tab from: http://www.guitartabs.cc/tabs/h/hot_water_music/trusty_chords_tab_ver_2.html ]
E|---------------------------------------------------------------
B|---------------------------------------------------------------
G|---------------------------------------------------------------
D|-7-7-7-7-7-7-7-5-5-5-5-5-5-5-5-9-9-9-9-9-9-9-9-5-5-5-5-5-5-5-5-
A|-5-5-5-5-5-5-5-5-5-5-5-5-5-5-5-9-9-9-9-9-9-9-9-5-5-5-5-5-5-5-5-
E|---------------3-3-3-3-3-3-3-3-7-7-7-7-7-7-7-7-3-3-3-3-3-3-3-3-

E|-------------------------------------------------------------
B|-------------------------------------------------------------
G|-------------------------------------------------------------
D|-7-7-7-7-7-7-7-7-5-5-5-5-5-5-5-7-7-7-7-7-7-7-5-5-5-5-5-5-5-5-
A|-5-5-5-5-5-5-5-5-5-5-5-5-5-5-5-7-7-7-7-7-7-7-5-5-5-5-5-5-5-5-
E|-----------------3-3-3-3-3-3-3-5-5-5-5-5-5-5-3-3-3-3-3-3-3-3-

*end*
E|------------------|
B|------------------|
G|------------------|
D|-7-7-7-7-7-7-7--5-|
A|-7-7-7-7-7-7-7--5-|
E|-5-5-5-5-5-5-5--3-|
Comments