Hot Water Music - Remedy Chords & Tabs

 

Remedy Chords & Tabs

Hot Water Music Chords & Tabs

Version: 2 Type: Tab 0 ratings
1 star 2 stars 3 stars 4 stars 5 stars
comments

Remedy Tab

   
-------------------------------------------------------------------------------
			     REMEDY - Hot Water Music
-------------------------------------------------------------------------------
Tabbed by:Mat
Email:

Tuning:EADGBe

Intro/Verse
e|-------------------------|
B|-------------------------|
G|--666--------------------|
D|--666-2-444-2-444-6-222--|
A|--444-2-444-2-444-6-222--|
E|------0-222-0-222-4-000--|

Awesome Intro Solo
e|----------------------------------------------------------------------------------------|
B|----------------------------------------------------------------------------------------|
G|--666666666666666-6-6-4-6-6-6-9-6-9-6-9-11-11-11-11-11-13-13-11-13-13-11-13-13-18(trem)-|
D|----------------------------------------------------------------------------------------|
A|----------------------------------------------------------------------------------------|
E|----------------------------------------------------------------------------------------|

Chrous (Must live to know...)
e|---------------------------------------|
B|---------------------------------------|
G|--44444444-66666666-88888888-99999999--|
D|--xxxxxxxx-xxxxxxxx-xxxxxxxx-xxxxxxxx--|
A|--22222222-44444444-66666666-77777777--|
E|---------------------------------------|
[ Tab from: http://www.guitartabs.cc/tabs/h/hot_water_music/remedy_tab_ver_2.html ]
Bridge
e|----------------------------------------------------------------|
B|--------------------------------------------------16--------16--|
G|-----6-9-8-4--9-8-6--9-11-8--13-9--9-8---------16--------16-----|
D|-----x-x-x-x--x-x-x--x-x--x--x--x--x-x------14--------14--------|
A|-----4-7-6-2--7-6-4--7-9--6--11-11-7-6--------------------------|
E|----------------------------------------------------------------|

Intro
Solo
Verse
Chrous
Solo
Verse
Chrous x2
Bridge
Chrous x2

I need a remedy
Of diseal and dust
Something I can taste with a fix i can trust
Another high, more potent than lust
Eating and repeating like the workings of rust and time

Woke to the sound
And the rythm of rain
Dancing down on the window pane
Comatose
Eyes half closed
Arms wrapped up
With the wounds all sewn
I froze from head to toe
Clenched the jaw
Felt my body roll
Over slow

I must live to know
That healing takes some time

So no, no regrets
No looking back on sinking ships
So, I'll strip the gauze for a rational self-analysis
Im down cut and bound
Counting scars
Counting blessings loud
So loud

I must live to know
That time alone is

No regrets, falling fits
I'll strip the gauze and bleed it


| /  slide up
| \  slide down
| h  hammer-on
| p  pull-off
| ~  vibrato
| +  harmonic
| x  Mute note
===============================================================================
Comments