Hot Water Music - Paper Thin Chords & Tabs

 

Paper Thin Chords & Tabs

Hot Water Music Chords & Tabs

Version: 3 Type: Tab 0 ratings
1 star 2 stars 3 stars 4 stars 5 stars
comments

Paper Thin Tab

   
-----------------------------------------------------------------------------
			     PAPER THIN- Hot Water Music
-----------------------------------------------------------------------------
Tabbed by:garlic bread?
Email:bords_knickords@hotmail.com

Tuning:EADGBe
 Main Riff
e|-------------------------------------------------------------------------| 
B|-------------------------------------------------------------------------|
G|-------------------------------------------------------------------------|
D|------------7-----7-------7--------7--------7----------------------------|
A|--0--0h4h5----0-0----0-0-0---0-0-0----0-0-0------------------------------|
E|-------------------------------------------------------------------------|
 Verse
e|-------------------------------------------------------------------------|
B|-------------------------------------------------------------------------|
G|-------------------------------------------------------------------------|
D|------------7-----7-------7--------7--------7----------------------------|
A|--0--0h4h5----0-0----0-0-0---0-0-0----0-0-0------------------------------|
E|-------------------------------------------------------------------------|
Chorus 
e|------------------------------------------------------------------------| 
B|------------------------------------------------------------------------| 
G|------------------------------------------------------------------------| 
D|---------------6-6-6---------------6-6-6-6-6-6--2-2-2-2-2--4-4-4-4-4-4--| 
A|--7-7-7-7-7-7--4-4-4--2-2-2-2-2-2--4-4-4-4-4-4--0-0-0-0-0--2-2-2-2-2-2--| 
E|--5-5-5-5-5-5---------0-0-0-0-0-0---------------------------------------| 

e|------------------------------------------------------------------------| 
B|------------------------------------------------------------------------| 
G|------------------------------------------------------------------------| 
D|-----------------------------------6-6-6-6-6-6--------------------------| 
A|--7-7-7-7-7-7--4-4-4--2-2-2-2-2-2--4-4-4-4-4-4--6-6-6-6-6--7-7-7-7-7-7--| 
E|--5-5-5-5-5-5--2-2-2--0-0-0-0-0-0---------------4-4-4-4-4--5-5-5-5-5-5--| 
[ Tab from: http://www.guitartabs.cc/tabs/h/hot_water_music/paper_thin_tab_ver_3.html ]
(2nd Time Only) 
e|---------------------------------------| 
B|---------------------------------------| 
G|---------------------------------------| 
D|--6-6-6-6-6-6--------------------------| 
A|--4-4-4-4-4-4--6-6-6-6-6--7-7-7-7-7-7--| 
E|---------------4-4-4-4-4--5-5-5-5-5-5--| 

Bridge 
e|-------------------------------------------------------------------------| 
B|-------------------------------------------------------------------------| 
G|9/11-11/13--13/14-14-14\13--11-11\9--9/11--11/13--13/14-14-14\13--11-11\9| 
D|-------------------------------------------------------------------------| 
A|7/-9-9/11--11/12-12-12\11---9--9\7--7/-9---9/11--11/12-12-12\11---9--9\7-| 
E|-------------------------------------------------------------------------| 

e|-------------------------------------------------------------------------| 
B|-------------------------------------------------------------------------| 
G|--14-14\13-13\11-11--14-14\13-13--------14-14\13-13\11-11--14-14\13-13\--| 
D|-------------------------------------------------------------------------| 
A|--12-12\11-11\-9--9--12-12\11-11\11-11--12-12\11-11\-9--9--12-12\11-11\--| 
E|----------------------------------9--9-----------------------------------| 

e|----------------------------------------| 
B|----------------------------------------| 
G|--14-14\13-13/14-14\13-13/14-14\13-13/--| 
D|----------------------------------------| 
A|--12-12\11-11/12-12\11-11/12-12\11-11/--| 
E|----------------------------------------| 

Outro 
e|-----------------------------------------------------------------| 
B|-----------------------------------------------------------------| 
G|--13-13-13-13-13-13/14-14-14--13-13-13-13-13-13/14-14-14---------| 
D|-----------------------------------------------------------------| 
A|--11-11-11-11-11-11/12-12-12--11-11-11-11-11-11/12-12-12--2~~~~--| 
E|----------------------------------------------------------0~~~~--|



| /  slide up
| \  slide down
| h  hammer-on
| p  pull-off
| ~  vibrato
| +  harmonic
| x  Mute note
=============================================================================
i think thats it- if theres any questions e-mail.
Peace Out :)
Comments