Hot Water Music - Paper Thin Chords & Tabs

 

Paper Thin Chords & Tabs

Hot Water Music Chords & Tabs

Version: 1 Type: Tab 1 rating
1 star 2 stars 3 stars 4 stars 5 stars
comments

Paper Thin Tab

Intro and Verse 1
Guitar: 
|----------------------------------------------------------|
|--------time and keeping with drumd is easy here----------|
|----------------------------------------------------------|
|--5-7--5-7--5-7--5-7--5-7--5-7--5-7--5-7--5-7--5-7--5-7---|
|----------------------------------------------------------|
|----------------------------------------------------------|
Bass:      ^ = spank this note
|------------------------------------|
|---^---^----------------------------|
|-55555555--^---^----^---^---^---^---| 
|---------55555555-2222222222222222--|

Chorus chords....[in order..not timed] 
Guitar:
|------------------------------------|
|------------------------------------|
|----6--------6--4-----6--------4--2-|
|-7--6--2--7--6--4--7--6--2--7--4--2-|
|-7--4--2--7--4--2--7--4--2--7--2--0-|
|-5-----0--5--------5-----0--5-------|

i dont have the solo yet....i'm working on it...check back around christmas!
 
			-sHeA
[ Tab from: http://www.guitartabs.cc/tabs/h/hot_water_music/paper_thin_tab.html ]
Comments