Hot Water Music - Just Dont Say You Lost It Chords & Tabs

 

Just Dont Say You Lost It Chords & Tabs

Hot Water Music Chords & Tabs

Version: 1 Type: Tab 0 ratings
1 star 2 stars 3 stars 4 stars 5 stars
comments

Just Dont Say You Lost It Tab

Hot Water Music
Just Dont say you lost it

Intro/Verse 1 riff

e---------------------------------------|
B---------------------------------------|
G----2---2-----4---4--------------7---7-|
D----2---2-----4---4----4---4-----7---7-|
A-00-0-0-0--22-2-2-2----4---4--55-5-5-5-|
E--------------------22-2-2-2-----------|
PM--   -    --   -   --   -    --   -

then..

e-------------------------------------------|
B-------------------------------------------|
G----2---2-----4---4----------6^7(6)-6^7(6)-|
D----2---2-----4---4----4---4---------------|
A-00-0-0-0--22-2-2-2----4---4---------------|
E--------------------22-2-2-2---------------|
Pm--   -    --   -   --   -

Intro part 2

guitar 1 & 2
                  
e----------------------------------|
B----------------------------------|
G-22222-44444--------6^7(6)-6^7(6)-|
D-22222-44444-44444----------------|
A-00000-22222-44444----------------|
E-------------22222----------------|

Back to Verse Riff and Bridge

Chorus
[ Tab from: http://www.guitartabs.cc/tabs/h/hot_water_music/just_dont_say_you_lost_it_tab.html ]
e-----------------------------------------------------------|
B-----------------------------------------------------------|
G-666666-66666-666666-666666------------------777777777777--|
D-xxxxxx-xxxxx-xxxxxx-xxxxxx-4444444444444444-777777777777--|
A-444444-44444-444444-444444-4444444444444444-555555555555--|
E----------------------------2222222222222222---------------|
PM                           -------------------------------|

Bass part for 2nd verse

e-------------------------------------|
B-------------------------------------|
G-------------------------------------|
D---4---4---4---4---4---4---4---------|
A-00-0-0--22-2-2----------55--5-4-2-0-|
E-----------------22-2-2--------------|

Then both guitar comes in with

e----|--------------------|
B----|--------------------|
G-6~-|6^7(6)-6^7(6)-a lot-|
D----|--------------------|
A----|--------------------|
E----|--------------------|

Then Intro part 2, except guitar 1 plays

e-------------------------------------------|
B-----5-----5----------5-7-5----------------|
G-6H7---6h7---6h7--6h7--------6^7(6)-6^7(6)-|
D-------------------------------------------|
A-------------------------------------------|
E-------------------------------------------|

Outro

Guitar 1

e--------------------------|
B--------------------------|
G-44444444-88888-11111111--|
D-xxxxxxxx-xxxxx-x-x-x-x---|
A-22222222-66666-9-9-9-9---|
E--------------------------|

Guitar 2

e-----------------------------|
B-----------------------------|
G-44444444-1111111111-99999---|
D-xxxxxxxx-x-x-x-x-x--xxxxx---|
A-22222222-9-9-9-9-9--77777---|
E-----------------------------|
Comments