Hot Rod Circuit - At Natures Mercy Chords & Tabs

 

At Natures Mercy Chords & Tabs

Hot Rod Circuit Chords & Tabs

Version: 1 Type: Tab 0 ratings
1 star 2 stars 3 stars 4 stars 5 stars
comments

At Natures Mercy Tab

   
HOT ROD CIRCUIT - AT NATURE'S MERCY

REGULAR TUNE (EADGBe)


B = whole tone bend
\ = slide down
/ = slide up

  Intro (Keep doing this. Pay atention to the tempo)
e|---5---5---5---5---5---5---7-7-7-7-7---5---5---5---5---5---5-5-5-5-5---5---5---5---7-7-7-7-7-|
B|---7---7---7---7---7---7---7-7-7-7-7---7---7---7---7---7---7-7-7-7-7---7---7---7---7-7-7-7-7-|
G|---------------------------------------------------------------------------------------------|
D|---------------------------------------------------------------------------------------------|
A|---------------------------------------------------------------------------------------------|
E|---------------------------------------------------------------------------------------------|
 |                                                                                             |
 |                                                                                             |
e|---------------------------------------------------------------------------------------------|
B|---------------------------------------------------------------------------------------------|
G|---------------------------------------------------------------------------------------------|
D|---------------------------------------------------------------------------------------------|
A|---------------------------------------9------\7-------4-4-5---------------------------------|
E|---------------------------------------7------\5-------2-2-3---------------------------------|
 |                                                                                             |
 |                                                                                             |
e|---------------------------------------------------------------------------------------------|
B|---------------------------------------------------------------------------------------------|
G|---------------------------------------11-----\9-------6-6-7---------------------------------|
D|---------------------------------------------------------------------------------------------|
A|---------------------------------------------------------------------------------------------|
E|---------------------------------------------------------------------------------------------|


[ Tab from: http://www.guitartabs.cc/tabs/h/hot_rod_circuit/at_natures_mercy_tab.html ]
                                        B
e|--------------------7--10--7--10--12--12--12---------------------------------------------------|
B|-8---7---7/8--7--------------------------------10-10-7--10-10-7--5-5-2-2--3-3-0--3-3-0--3-3-2-2|
G|-----------------7-----------------------------------------------------------------------------|
D|-----------------------------------------------------------------------------------------------|
A|-----------------------------------------------------------------------------------------------|
E|-----------------------------------------------------------------------------------------------|
 |                                                                                               |
 |                                                                                               |
e|-----------------------------------------------------------------------------------------------|
B|-----------------------------------------------------------------------------------------------|
G|-----------------------------------------------------------------------------------------------|
D|-----------------------------------------------------------------------------------------------|
A|-9------------------10-------------------------5--------------------------4--------------------|
E|-7------------------8--------------------------3--------------------------2--------------------|




e|-7-7-5-5---------7-7-5-5---------3-3-3--2-2-2--0-0-0--0-0-0--0-0-0-----------------------------|
B|-7-7-7-7---------7-7-7-7---------3-3-3--3-3-3--2-2-2--3-3-3--0-0-0-----------------------------|
G|-----------------------------------------------------------------------------------------------|
D|-----------------------------------------------------------------------------------------------|
A|-----------------------------------------------------------------------------------------------|
E|-----------------------------------------------------------------------------------------------|
 |                                                                                               |
 |                                                                                               |
e|-----------------------------------------------------------------------------------------------|
B|-----------------------------------------------------------------------------------------------|
G|-----------------------------------------------------------------------------------------------|
D|-----------------------------------------------------------------------------------------------|
A|-9-9-7-----------5---------------2-------------4-------------5---------------------------------|
E|-7-7-5-----------3---------------0-------------2-------------3---------------------------------|


Any doubts or corrections, please search for us, UG Tab Team Members, in the Tab Talk forum.

UG Tab Team
http://www.ultimate-guitar.com
Comments