Hot Hot Heat - Talk To Me Dance With Me Chords & Tabs

 

Talk To Me Dance With Me Chords & Tabs

Hot Hot Heat Chords & Tabs

Version: 1 Type: Tab 2 ratings
1 star 2 stars 3 stars 4 stars 5 stars
comments

Talk To Me Dance With Me Tab

Artist: Hot Hot heat
Album: Make up the breakdown
Song: Talk to me, dance with me
Tabbed by: Senya Bezpro


Intro:
e-----------------------------------------------------------
B-----------------------------------------------------------
G-----------------------------------------------------------
D--8-8--8-10-8-10-8-(x3)--8-8--8-10-(8/4)-second time only-- (X3)
A-----------------------------------------------------------
E-----------------------------------------------------------


Verse:
e-----------------------------------------------------------
B-----------------------------------------------------------
G-----------------------------------------------------------
D--8-8--8-10-8-10-8----------------------------------------
A-----------------------------------------------------------
E-----------------------------------------------------------

you are my only girl.....
[ Tab from: http://www.guitartabs.cc/tabs/h/hot_hot_heat/talk_to_me_dance_with_me_tab.html ]
Chorus:
e-----------------------------------------------------------
B-----------------------------------------------------------
G-----------------------------------------------------------
D--8-8--8-10-8-10-8----------------------------------------
A-----------------------------------------------------------
E-----------------------------------------------------------

talk to me, dance with me....

Interlude: Distorted Bass?

Verse 2:??
couldnt figure out this part some kind of weird SKA chords im guessing.

Chorus

Interlude 2(after weird cash register sound):
e-------------------------------------------------------------
B-------------------------------------------------------------
G--10---10-8---8-6-(6-4)--------------------------------------
D--10---10-8---8-6-(6-4)only first time-----------------------(X2)
A--8----8--6 --6-4-(4-2)--------------------------------------
E-------------------------------------------------------------

Chorus

Well thats it. Not a 100% right but it sounds close to me. If anyone has any other Hot Hot Heat tabs please post 
them because I can't find them anywhere on the internet.
Comments