Hot Hot Heat - Talk To Me Dance With Me Chords & Tabs

 

Talk To Me Dance With Me Chords & Tabs

Hot Hot Heat Chords & Tabs

Version: 2 Type: Bass Tab 0 ratings
1 star 2 stars 3 stars 4 stars 5 stars
comments

Talk To Me Dance With Me Bass Tab

   
Song: Talk To Me, Dance With Me
Artist: Hot Hot Heat
Album:Make Up the Breakdown
Tuning: BEADG

G|----------|
D|----------|
A|--Guitar--| 
E|--Intro---|
B|----------| 

Riff A
G|-------------------------------------|
D|--------------------------------8----|
A|-6666-8-4-4444-6---------------------|
E|-----------------6-6666-4---666---6--|
B|--------------------------6----------|


Riff B
G|-------------------10h11h10----|
D|-4-4-4-44666-66888-------------|
A|------4-----6------------------|
E|-------------------------------|
B|-------------------------------|

Riff C
G|-------------------------------|
D|-4-4-4-44666-66888-8-88-8-88---|
A|------4-----6------------------|
E|-------------------------------|
B|-------------------------------|
[ Tab from: http://www.guitartabs.cc/tabs/h/hot_hot_heat/talk_to_me_dance_with_me_btab_ver_2.html ]
Riff D
G|---------------------------------------|
D|---------------------------------------|
A|-6--8-4--6----------6--8-4--6-------4--|
E|-----------6--6-4-------------6--646-6-|
B|---------------------------------------|

Riff E
G|----------------------------------|
D|-4-4-4-4-6-6-6-6-8-8-8-8-8-8-6-6--|
A|----------------------------------|
E|----------------------------------|
B|----------------------------------|

*Song Order*
Guitar Intro
Riff A (2 times) With Autowah and overdrive
Riff B (4 times)
Riff A (1 time)
Riff E (2 times)
Riff A (5 times)
Riff C (1 time)
DRUMS ONLY
Riff D (2 times) with Autowah and overdrive
Riff A (3 times)
Riff C

 I think thats the whole song, i would first like to thank my friend Ana for
introducing me to this song and i would like to thank my other friend Smiley for
teaching me this song. Kool.
Comments