Hot Hot Heat - No Not Now Chords & Tabs

 

No Not Now Chords & Tabs

Hot Hot Heat Chords & Tabs

Version: 1 Type: Tab 0 ratings
1 star 2 stars 3 stars 4 stars 5 stars
comments

No Not Now Tab

(I'm pretty sure they use a delay effect on the guitars in thei particular song. But
you can make the same effect by stopping every chord very quickly after strumming it.
Also try strumming upwards.  Listen to the song, you'll figure it out.  Unless you have
a delay pedal.  E-mail me if any questions.)

Intro - tuning eADGBE
[ Tab from: http://www.guitartabs.cc/tabs/h/hot_hot_heat/no_not_now_tab.html ]
-------------------------|-------------------|-------------------|
-0--0--0--0--0--0--0--0--|--0-0-0-0-0-0-0-0--|--0-0-0-0-0-0-0-0--|
-0--0--0--0--0--0--0--0--|--0-0-0-0-0-0-0-0--|--0-0-0-0-0-0-0-0--|
-9--9--9--9--9--9--9--9--|--9-9-9-9-9-9-9-9--|--4-4-4-4-4-4-4-4--|
-10-10-10-10-10-10-10-10-|--7-7-7-7-7-7-7-7--|--2-2-2-2-2-2-2-2--|

------------------||
-0-0-0-0-0-0-0-0--||
-0-0-0-0-0-0-0-0--||         Ladies and Gentleman. Enjoy!
-4-4-4-4-4-4-4-4--||
-2-2-2-2-2-2-2-2--||
Comments