Hot Hot Heat - Middle Of Nowhere Chords & Tabs

 

Middle Of Nowhere Chords & Tabs

Hot Hot Heat Chords & Tabs

Version: 1 Type: Bass Tab 0 ratings
1 star 2 stars 3 stars 4 stars 5 stars
comments

Middle Of Nowhere Bass Tab

Note: This is my first tab so go easy on me

Standard Tuning (EADG)

Intro: No bass

Verse: Enter at 0:16.
G|--------|--------|--------|--------|--------|--------|--------|--------|
D|--------|--------|--------|--------|--------|--------|--------|--------|
A|----5---|5---5---|5-------|--------|----3---|3---3---|3-------|--------|
E|--------|--------|----5---|5---5---|5-------|--------|----3---|3---3---|


G|--------|--------|--------|--------|--------|--------|--------|--------|
D|--------|--------|--------|--------|--------|--------|--------|--------|
A|----5---|5---5---|5-------|--------|----3---|3---3---|3-------|--------|
E|3-------|--------|----5---|5---5---|5-------|--------|----3---|3---3---|


G|--------|--------|--------|--------|--------|--------|--------|--------|
D|--------|--------|--------|--------|--------|--------|--------|--------|
A|----5---|5---5---|5-------|--------|----3---|3---3---|3-------|--------|
E|3-------|--------|----5---|5---5---|5-------|--------|----3---|3---3---|


Prechorus: Enter at 0:57.
G|--------|--------|--------|--------|--------|--------|--------|--------|
D|--------|--------|--------|--------|--------|--------|--------|--------|
A|555--5--|555--5--|222--2--|222--2--|000--0--|000--0--|555--5--|555--5--|
E|--------|--------|--------|--------|--------|--------|--------|--------|


Chorus: Enter at 1:10.
G|--------|--------|--------|--------|--------|--------|--------|--------|
D|55555555|55555555|--------|--------|33333333|33333333|--------|--------|
A|--------|--------|55555555|55555555|--------|--------|33333333|33333333|
E|--------|--------|--------|--------|--------|--------|--------|--------|


G|--------|--------|--------|--------|--------|--------|--------|--------|
D|55555555|55555555|--------|--------|33333333|33333333|--------|--------|
A|--------|--------|55555555|55555555|--------|--------|33333333|33333333|
E|--------|--------|--------|--------|--------|--------|--------|--------|


Verse: Enter at 1:38.
G|--------|--------|--------|--------|--------|--------|--------|--------|
D|--------|--------|--------|--------|--------|--------|--------|--------|
A|----5---|5---5---|5-------|--------|----3---|3---3---|3-------|--------|
E|--------|--------|----5---|5---5---|5-------|--------|----3---|3---3---|


G|--------|--------|--------|--------|--------|--------|--------|--------|
D|--------|--------|--------|--------|--------|--------|--------|--------|
A|----5---|5---5---|5-------|--------|----3---|3---3---|3-------|--------|
E|3-------|--------|----5---|5---5---|5-------|--------|----3---|3---3---|

[ Tab from: http://www.guitartabs.cc/tabs/h/hot_hot_heat/middle_of_nowhere_btab.html ]
Prechorus: Enter at 2:05.
G|--------|--------|--------|--------|--------|--------|--------|--------|
D|--------|--------|--------|--------|--------|--------|--------|--------|
A|555--5--|555--5--|222--2--|222--2--|000--0--|000--0--|555--5--|555--5--|
E|--------|--------|--------|--------|--------|--------|--------|--------|


Chorus: Enter at 2:19.
G|--------|--------|--------|--------|--------|--------|--------|--------|
D|55555555|55555555|--------|--------|33333333|33333333|--------|--------|
A|--------|--------|55555555|55555555|--------|--------|33333333|33333333|
E|--------|--------|--------|--------|--------|--------|--------|--------|


G|--------|--------|--------|--------|--------|--------|--------|--------|
D|55555555|55555555|--------|--------|33333333|33333333|--------|--------|
A|--------|--------|55555555|55555555|--------|--------|33333333|33333333|
E|--------|--------|--------|--------|--------|--------|--------|--------|


Interlude: Enter at 2:47.
G|--------|--------|--------|--------|--------|--------|--------|--------|
D|55555555|55555555|--------|--------|33333333|33333333|--------|--------|
A|--------|--------|55555555|55555555|--------|--------|33333333|33333333|
E|--------|--------|--------|--------|--------|--------|--------|--------|


Prechorus: Enter at 3:01.
G|--------|--------|--------|--------|--------|--------|--------|--------|
D|--------|--------|--------|--------|--------|--------|--------|--------|
A|555--5--|555--5--|222--2--|222--2--|000--0--|000--0--|555--5--|555--5--|
E|--------|--------|--------|--------|--------|--------|--------|--------|


Chorus: Enter at 3:14
G|--------|--------|--------|--------|--------|--------|--------|--------|
D|55555555|55555555|--------|--------|33333333|33333333|--------|--------|
A|--------|--------|55555555|55555555|--------|--------|33333333|33333333|
E|--------|--------|--------|--------|--------|--------|--------|--------|


G|--------|--------|--------|--------|--------|--------|--------|--------|
D|55555555|55555555|--------|--------|33333333|33333333|--------|--------|
A|--------|--------|55555555|55555555|--------|--------|33333333|33333333|
E|--------|--------|--------|--------|--------|--------|--------|--------|


G|--------|--------|--------|--------|--------|--------|--------|--------|
D|55555555|55555555|--------|--------|33333333|33333333|--------|--------|
A|--------|--------|55555555|55555555|--------|--------|33333333|33333333|
E|--------|--------|--------|--------|--------|--------|--------|--------|


End with:
G|--------|
D|--------|
A|3~------|
E|--------|
Comments