Hot Hot Heat - Island Of The Honest Man Chords & Tabs

 

Island Of The Honest Man Chords & Tabs

Hot Hot Heat Chords & Tabs

Version: 1 Type: Tab 1 rating
1 star 2 stars 3 stars 4 stars 5 stars
comments

Island Of The Honest Man Tab

Hot Hot Heat
Island of the Honest Man
album >> Elevator

kiesifyouplease@gmail.com for corrections, enthusiastic praise and so on

Verse 1
E  |-----------------------------------------------------------------------------------------
B  |------------------10----10-----------------9----9-------------------------------------------
G  |----8---8-----------------------9----9---------------------------------------------------
D  |-----------------------------------------------------------------------------------------
A  |---------------9------9-------------------7----7-------------------------------------------
E  |--7--7-----------------------9----9--------------------------------------------------------

E  |----------------------------------------------------------------------------------------
B  |------------------10----10----------10------10------------12------12--------------------
G  |----8---8-------------------------------11------11------------13------13----------------
D  |----------------------------------------------------------------------------------------
A  |---------------9------9----------------------------------------------------------------
E  |--7--7---------------------------------------------------------------------------------

E  |-----------------------------------------------------------------------------------------
B  |------------------10----10------------------9----9-------------------------------------------
G  |----8---8-----------------------9----9---------------------------------------------------
D  |-----------------------------------------------------------------------------------------
A  |---------------9------9-------------------7----7-------------------------------------------
E  |--7--7-----------------------9----9--------------------------------------------------------

E  |-----------------------------------------------------------------------------------------
B  |------------------10----10------------------9----9-------------------------------------------
G  |----8---8-----------------------9----9---------------------------------------------------
D  |-----------------------------------------------------------------------------------------
A  |---------------9------9-------------------7----7-------------------------------------------
E  |--7--7-----------------------9----9--------------------------------------------------------

E  |-------------------9---------------------------------------------------------------
B  |-------------------9----------10------10----------12----12-------------------------------
G  |----8---8----------9--------------11-----11----------13----13---------------------
D  |---------------(strum--------------------------------------------------------------------------
A  |--------------furiously)-----------------------------------------------------------------------
E  |--7--7-------------------------------------------------------------------------------

E  |----------------------------------------------------------------------------------------------
B  |---12------12---------------14-------14--------10------10----------12----12---------------
G  |---11------11---------------14-------14------------11-----11----------13----13------
D  |-------13------13-------16-------16-----------------------------------------------------
A  |---------------------------------------------------------------------------------------
E  |---------------------------------------------------------------------------------

E  |----------------------------------------------------------------------------------
B  |---12------12--------------12^---(bend up a half step, strum)-------
G  |---11------11--------------11^---(bend up a half step, strum)------
D  |-------13------13-------------------------------------------------------------
A  |---------------------------------------------------------------------------------
E  |---------------------------------------------------------------------------------

take a breather for a little bit, mess around with whatever fits in the key

Chorus
        E  |----12--12--12--12--12--12--12--12---9--9--9--9--9--9--9--9--------------
        B  |----12--12--12--12--12--12--12--12--10-10-10--10-10-10-10-10-------------
        G  |----13--13--13--13--13--13--13--13--11-11-11--11-11-11-11-11---------------
        D  |-----------------------------------------------------------------------------------
        A  |------------------------------------------------------------------------------------
        E  |-----------------------------------------------------------4x---------------------
        "Welcome to the island of the honest man..."

        E  |-----7--7--7--7--7--7--7--7---8--8--8--8--8--8--8--8------------------------------
        B  |-----7--7--7--7--7--7--7--7---8--8--8--8--8--8--8--8-------------------------------
        G  |-----8--8--8--8--8--8--8--8---9--9--9--9--9--9--9--9-------------------------------
        D  |---------------------------------------------------------------------------------
        A  |---------------------------------------------------------------------------------
        E  |---------------------------------------------------------------------------------
[ Tab from: http://www.guitartabs.cc/tabs/h/hot_hot_heat/island_of_the_honest_man_tab.html ]
Verse 2
E  |-------------------9-----9---------------------------------------------------------------
B  |----7---7---------10----10-----------------9----9-------------------------------------------
G  |----8---8-----------------------9----9---------------------------------------------------
D  |-----------------------------------------------------------------------------------------
A  |---------------9------9-------------------7----7-------------------------------------------
E  |--7--7-----------------------9----9--------------------------------------------------------

E  |-------------------9-----9-------------------------------------------------------------
B  |----7---7---------10----10----------10------10------------12------12-----------
G  |----8---8-------------------------------11------11------------13------13- -----
D  |----------------------------------------------------------------------------------------
A  |---------------9------9----------------------------------------------------------------
E  |--7--7---------------------------------------------------------------------------------

E  |----------------------------------------------------------------------------------------------
B  |---12------12---------------14-------14--------10------10----------12----12---------------
G  |---11------11---------------14-------14------------11-----11----------13----13------
D  |-------13------13-------16-------16-----------------------------------------------------
A  |--------------------------------------------------------------------------------------------
E  |------------------------------------------------------------------------------------------

E  |-------------------------------------------------------------------------------------------
B  |---12------12--------------12^---(bend up a half step, strum)-----------------------
G  |---11------11--------------11^---(bend up a half step, strum)----------------------
D  |-------13------13----------------------------------------------------------------------
A  |------------------------------------------------------------------------------------------
E  |-------------------------------------------------------------------------------------------

Wait for a little bit, mess around playing whatever notes fit in the key

Chorus
        E  |----12--12--12--12--12--12--12--12---9--9--9---9--9--9---9--9--------------
        B  |----12--12--12--12--12--12--12--12--10-10-10--10-10-10--10-10-------------
        G  |----13--13--13--13--13--13--13--13--11-11-11--11-11-11--11-11---------------
        D  |-----------------------------------------------------------------------------
        A  |------------------------------------------------------------------------------
        E  |----------------------------------------------------------4x---------------------
        "Welcome to the island of the honest man..."

        E  |-----7--7--7--7--7--7--7--7---8--8--8--8--8--8--8--8-------------------------------
        B  |-----7--7--7--7--7--7--7--7---8--8--8--8--8--8--8--8-------------------------------
        G  |-----8--8--8--8--8--8--8--8---9--9--9--9--9--9--9--9-------------------------------
        D  |-----------------------------------------------------------------------------------
        A  |------------------------------------------------------------------------------------
        E  |-----------------------------------------------------------------------------------

Bridge
E  |--------------------------------------------------------------------------------------------
B  |-------------------------------------------------------------------------------------------
G  |------------------------------------------------------------------------------------------
D  |------------------------------------------------------2--2--2------------------------------
A  |----4--4--4--4--4--4--4--4---4--4--4--4--4--4--4--4--------------------------
E  |---------------------------------------------------------------------4x--------------------

E  |--------------------------------------------------------------------------------------------
B  |--------------------------------------------------------------------------------------------
G  |--------------------------------------------------------------------------------------------
D  |----------2-----------2------------2--------2--2--2--------------------------------
A  |----4--4-----4--4--4-----4---4--4-----4--4--4--4--4-----------------------------------
E  |---------------------------------------------------------------------3x-----------------

E  |-----------------------------------------------------5-------5----------------------------
B  |-----------------------------------------------------5-------5---------------------------
G  |-----------------------------------------------------6-------6-------------------------------
D  |----------2-----------2------------2-----------------7-------7-------------------------------
A  |----4--4-----4--4--4-----4---4--4-----4--------------7-------7----------------------------
E  |-----------------------------------------------------5-------5------------------------------

Chorus (longer)
        E  |----12--12--12--12--12--12--12--12---9--9--9---9--9--9--9--9--------------
        B  |----12--12--12--12--12--12--12--12--10-10-10--10-10-10--10-10-------------
        G  |----13--13--13--13--13--13--13--13--11-11-11--11-11-11--11-11---------------
        D  |--------------------------------------------------------------------------------
        A  |---------------------------------------------------------------------------------
        E  |----------------------------------------------------------8x---------------------
        "Welcome to the island of the honest man..."

        E  |-----7--7--7--7--7--7--7--7---8--8--8--8--8--8--8--8------------------------------
        B  |-----7--7--7--7--7--7--7--7---8--8--8--8--8--8--8--8-------------------------------
        G  |-----8--8--8--8--8--8--8--8---9--9--9--9--9--9--9--9-------------------------------
        D  |------------------------------------------------------------------------------------
        A  |----------------------------------------------------------------------------------
        E  |----------------------------------------------------------------------------------
Comments