Hot Hot Heat - Goodnight Goodnight Chords & Tabs

 

Goodnight Goodnight Chords & Tabs

Hot Hot Heat Chords & Tabs

Version: 2 Type: Tab 0 ratings
1 star 2 stars 3 stars 4 stars 5 stars
comments

Goodnight Goodnight Tab

   
----------------------------------------------------------------------------
			     SONG NAME - Band Name
----------------------------------------------------------------------------
Tabbed by: X-Bach
Email:Josephbachmayer@hotmail.com

Tuning:E-B-G-D-A-E

INTRO-

e|--------------------------
B|---6--6-6---6---6---6-----
G|---7--7-7---7---7---7-----
D|--------------------------
A|--------------------------
E|-------------------------- X2

Verse-
[ Tab from: http://www.guitartabs.cc/tabs/h/hot_hot_heat/goodnight_goodnight_tab_ver_2.html ]
e|--------------------------|--------------------------|
B|---8--8-8---4---4---4-----|---6--6-6---3---3---3-----|
G|---8--8-8---5---5---5-----|---7--7-7---3---3---3-----|
D|--------------------------|--------------------------|
A|--------------------------|--------------------------|
E|--------------------------|--------------------------|

Chorus-

e|------------------------------------------|           |--------------|
B|------------------------------------------|           |--------------|
G|------------------------------------------|           |--------------|
D|---7--7-7---5--5-5---/9--9-9---7--7-7-----|           |---5~---------|
A|---5--5-5---5--5-5---/7--7-7---7--7-7-----|           |---5~---------|
E|------------3--3-3-------------5--5-5-----| X2, THEN- |---3~---------|

Repeat verse and chorus....don't have solo yet, give it time.

| /  slide up
| \  slide down
| h  hammer-on
| p  pull-off
| ~  vibrato
| +  harmonic
| x  Mute note
============================================================================
Comments