Hot Hot Heat - Goodnight Goodnight Chords & Tabs

 

Goodnight Goodnight Chords & Tabs

Hot Hot Heat Chords & Tabs

Version: 1 Type: Bass Tab 0 ratings
1 star 2 stars 3 stars 4 stars 5 stars
comments

Goodnight Goodnight Bass Tab

   
----------------------------------------------------------------------------
			     SONG NAME - Band Name
----------------------------------------------------------------------------

Tabbed By : X-Bach
e-mail: Josephbachmayer@hotmail.com

Tuning:G-D-A-E
Intro
G|--------------------------------------------------------------------------|
D|----10-------------------------8------------------------------------------|
A|------------------8------------------------10-----------------------------|
E|--------------------------------------------------------------------------|

G|--------------------------------------------------------------------------|
D|--------------------------------------------------------------------------|
A|-----3-------------------------1------------------------------------------|
E|------------------1-------------------------3-----------------------------|
[ Tab from: http://www.guitartabs.cc/tabs/h/hot_hot_heat/goodnight_goodnight_btab.html ]
Verse
G|--------------------------------------------------------------------------|
D|--------------------------------------------------------------------------|
A|-----3-3-3-3-3-3-3-3-----------------3-3-3-3-3-3-3-3----------------------|
E|---------------------1-1-1-1-1-1-1-1------------------1-1-1-1-1-1-1-1-----|

G|--------------------------------------------------------------------------|
D|--------------------------------------------------------------------------|
A|-----3-3-3-3-3-3-3-3-----------------1-1-1-1-1-1-1-1-1-1-1-1--------------|
E|---------------------1-1-1-1-1-1-1-1--------------------------------------|

Chorus  X2
G|--------------------------------------------------------------------------|
D|--------------------------------------------------------------------------|
A|-----5-5-5-5-5-5-5-5-----------------7-7-7-7-7-7-7-7----------------------|
E|---------------------3-3-3-3-3-3-3-3-----------------5-5-5-5-5-5-5-5---3~-|


| /  slide up
| \  slide down
| h  hammer-on
| p  pull-off
| ~  vibrato
| +  harmonic
| x  Mute note
===============================================================================
Comments