Hot Hot Heat - Bandages Chords & Tabs

 

Bandages Chords & Tabs

Hot Hot Heat Chords & Tabs

Version: 2 Type: Tab 0 ratings
1 star 2 stars 3 stars 4 stars 5 stars
comments

Bandages Tab

Band: Hot Hot Heat
Song: Bandages
Album: Make up the break down
Tabbed by: Andrew Biles

Great song is standard tuning.  most of this song is right,
few parts maybe missing a couple of notes but it all sounds good.

Intro
|-5-5---5-5-
|-5-5---5-5-
|-2-2---2-2-
|-----------
|-----------
|-----------

|------------------
|------8-----------
|----5-7^--7-5---5-
|-/7-----------7---
|------------------
|------------------

Chorus Chords
|-3----3----5-5-x-x-5--5-5-x-x-5-
|-5----3----5-5-x-x-5--5-5-x-x-5-
|-5----4----5-5-x-x-5--5-5-x-x-5-
|-5----5-------------------------
|-3----5-------------------------
|--------------------------------

Verse
|-----------------------
|-----------------------
|-9--7--5--4--4h5p4p0-2-
|-----------------------
|-----------------------
|-----------------------

not entirely sure about this next part, but this is quite close
|----------------------
|-8----8-----8-----8---
|--------7-----7-----7-
|----9-----9-----9-----
|----------------------
|----------------------
repeat both above parts
[ Tab from: http://www.guitartabs.cc/tabs/h/hot_hot_heat/bandages_tab_ver_2.html ]
|-------------
|-------------
|-------------
|-5-7-----5-7-
|-5-7-----5-7-
|-3-5-----3-5-
  around, around.....

|------------------
|------8-----------
|----5-7^--7-5---5-
|-/7-----------7---
|------------------
|------------------

chorus again

then for the next verse just one note is held, it's sounds like a harmonic,
but I've put it as a normal note
|--15~-
|------
|------
|------
|------
|------

then the whole of the verse and chorus again

Bridge part ("don't worry now, don't worry now....")
|-5-5-5--3---3-3-3--3-------------------------------
|-5-5-5--5---3-3-3--3---12-12-12--12---14-14-14--14-
|-6-6-6--4---4-4-4--4---12-12-12--12---14-14-14--14-
|-7-7-7--5---5-5-5--5---12-12-12--12---14-14-14--14-
|-7-7-7-----------------10-10-10--10---12-12-12--12-
|---------------------------------------------------

|------------------
|------8-----------
|----5-7^--7-5---5-
|-/7-----------7---
|------------------
|------------------

then the chorus again

and that's the whole of the song, hope you enjoyed or thought the tab was good,
cos it is.
Comments