Hot Hot Heat - Bandages Chords & Tabs

 

Bandages Chords & Tabs

Hot Hot Heat Chords & Tabs

Version: 1 Type: Tab 0 ratings
1 star 2 stars 3 stars 4 stars 5 stars
comments

Bandages Tab

Hot Hot Heat - Bandages
[ Tab from: http://www.guitartabs.cc/tabs/h/hot_hot_heat/bandages_tab.html ]
Intro
e|---5-5-5-5------5-5-5---5------------------5--5--5---------------------|
B|-----------------------------------------------------------------------|
G|-----------------------------------------------------------------------|
D|-----------------------------------------------------------------------|
A|-----------------------------------------------------------------------|
E|-----------------------------------------------------------------------|
Verse
e|-----------------------------------------------------------------------|
B|-----------------------------------------------------------------------|
G|--5--------------------------------------------------------------------|
D|--5---5---7------------------------------------------------------------|
A|--3---5---7------------------------------------------------------------|
E|------3---5------------------------------------------------------------|

e|-----------------------------------------------------------------------|
B|-----------------------------------------------------------------------|
G|--9-7-5-4-2--------------------------------5---------------------------|
D|---------------2------x6------7--5--7-5-7--5---------------------------|
A|------------------------------7--5--7-5-7--3---------------------------|
E|------------------------------5--3--5-3-5------------------------------|
Chorus
e|-----------------------------------------------------------------------|
B|-----------------------------------------------------------------------|
G|-----------------------------------------------------------------------|
D|--7--7----7----7-7---7-------------------------------------------------|
A|--7--7----7----7-7---7-------------------------------------------------|
E|--5--5----5----5-5---5-------------------------------------------------|
Comments