Hot Chocolate - I Beleive In Miracles Chords & Tabs

 

I Beleive In Miracles Chords & Tabs

Hot Chocolate Chords & Tabs

Version: 1 Type: Bass Tab 0 ratings
1 star 2 stars 3 stars 4 stars 5 stars
comments

I Beleive In Miracles Bass Tab

-------------------------------------------------------------------------------
			     I Beleive in Miracles - Hot Chocolate
-------------------------------------------------------------------------------

Tabbed By : Bassman!
e-mail: bassman13@hotmail.com

Tuning:standard

this is repeated the majority of the song
G|--------------------------------------------------------------------------
D|--------------------------------------------------------------------------
A|-------------------------------------3------------------------------------
E|-0---00---2h3-2h3-4-5-----55-----55---------------------------------------
[ Tab from: http://www.guitartabs.cc/tabs/h/hot_chocolate/i_beleive_in_miracles_btab.html ]
this is the other part
G|--------------------------------------------------------------------------
D|--------------------------------------------------------------------------
A|---1--11-11-1---3--33--3-3---1--11-11--1---3-33--3-3----------------------
E|--------------------------------------------------------------------------

(it's a little off, but u'll get the basic outline)
G|--------------------------------------------------------------------------
D|--------------------------------------------------------------------------
A|------------------------------------------3--5--7-------------------------
E|--5--55--55-5----3--33-33-3---5--55-55-5----------------------------------
Comments