Hot Action Cop - Fever For The Flava Chords & Tabs

 

Fever For The Flava Chords & Tabs

Hot Action Cop Chords & Tabs

Version: 1 Type: Tab 0 ratings
1 star 2 stars 3 stars 4 stars 5 stars
comments

Fever For The Flava Tab

song: fever for the flava
artist: hot action cop

note: this is my first tab ever to make so please correct me if you can find an error or if you figure out the tab for the guitar line at the beginning at whostolemyoctopus@yahoo.com . thanks.


goes along with main guitar line in the verses

e-----------------------------------------------------
A-----------------------------------------------------
D-----------------------------------------------------
G--4--4--5--4--4--3-----------------------------------
B--4--4--5--4--4--3-----------------------------------
E--2--2--3--2--2--1-----------------------------------



bridge:
[ Tab from: http://www.guitartabs.cc/tabs/h/hot_action_cop/fever_for_the_flava_tab.html ]
e---------------------------------------------------
A---------------------------------------------------
D---------------------------------------------------
G--4--6--3--5//4------------------------------------
B--4--6--3--5//4------------------------------------
E--2--4--1--3//2------------------------------------


chorus:

e-------------------------------------
A-------------------------------------
D-------------------------------------
G--4--6--7--9-------------------------
B--4--6--7--9-------------------------
E--2--4--5--7-------------------------

yes i am aware that there is alot missing that is partially why i am submitting this.  i figure if someone sees it they will help me to figure out all of the gaps.  thank you.
Comments