Horrorpops - Miss Take Chords & Tabs

 

Miss Take Chords & Tabs

Horrorpops Chords & Tabs

Version: 1 Type: Tab 0 ratings
1 star 2 stars 3 stars 4 stars 5 stars
comments

Miss Take Tab

   
this is a super cool indy punk band from europe and they really are worth listening to!
they tour around in eurpe alot but they cant come to north america since
they are unable to leave thier country. the lead singer is famous for using her upright 
during
the preformances this song is off thier first album and are somtimes played
on underground punk and/or indy Tv Shows


tuning-standard-EADGBE

p=pull off
h=hammer on
b=bend
^=band and bend back

Verse

1-------------------------------------------------------|
2-------------------------------------------------------|
3-------------------------------------------------------|
4-5-5-5-5-5-5-5-5h6(x3)-5-5-5-5-5h6p5-5h6p5-------------|
5-------------------------------------------------------|
6-------------------------------------------------------|

Verse 1 fill

1-------------------------------------------------------|
2-------------------------------------------------------|
3-0/5--0-5-4--4-0-3--0-3-4------------------------------|
4-------------------------------------------------------|
5-------------------------------------------------------|
6-------------------------------------------------------|

Chorus

1-------------------------------------------------------|
2-------------------------------------------------------|
3-4--------------------2------3-------------------------|
4-4-(x8)-4------5------2-(x4)-3-(x4)--------------------|
5-2------4-(x8)-5-(x8)-0------1-------------------------|
6--------2------3---------------------------------------|

Post Chorus (are you satisfied...)

1-------------------------------------------------------|
2-------------------------------------------------------|
3-7------6----------------------------------------------|
4-7-(x8)-6-(x8)-4---------------------------------------|
5-5------4------4-(x16)---------------------------------|
6---------------2---------------------------------------|

Verse

Verse 2 Fill

1-------------------------------------------------------|
2-------------------------------------------------------|
3-0/5--0-5-7--0-7-8--0-8-7------------------------------|
4-------------------------------------------------------|
5-------------------------------------------------------|
6-------------------------------------------------------|

Chorus

Post Chorus

Solo (guitar 1)
[ Tab from: http://www.guitartabs.cc/tabs/h/horrorpops/miss_take_tab.html ]
1-------------------------------------------------------|
2-------------------------------------------------------|
3-------------------------------------------------------| Bass notes are
4------5---------------4---4---4------------------------| palm muted
5-3-3-3-3------5--2-2-2-2-2-2-2-2-----------------------|
6---------3-3-3-3---------------------------------------|

Solo (guitar 2)

1-------------------------------------------------------|
2-------------------------------------------------------|
3-------------------------------------------------------|
4-------------------------------------------------------|
5-3-6-5-6---6-5-6--3-6-5-6-5-6-5-6--(x2)----------------|
6---------3---------------------------------------------|

1-------------------------------------------------------|
2-------------------------------------------------------|
3-------------------------------------------------------|
4--------3-3---------------3-3--------------------------|
5-3-6-5h6---5-6-6p5---6-5h6---6-5-6p5-------------------|
6--------------------3----------------------------------|

1-------------------------------------------------------|
2-------------------------------------------------------|
3-------------------------------------------------------|
4-1-1/3-5p3-3-5p3-3-5p3-3--3-5-7-8-7-5-3-1--------------|
5-------------------------------------------------------|
6-------------------------------------------------------|

1-------------------------------------------------------|
2-------------------------------------------------------|
3---8-10p8-10b-10^-8----8-10p8-10b-10^-8----------------|
4-10----------------10-8----------------10--------------|
5-10-------------------8--------------------------------|
6-------------------------------------------------------|

1-----------------11-10-8-------------------------------|
2-----------------11-10-8-------------------------------|
3-8-10p8-8-10p8-8-----------------------11-9-7----------|
4-8-10p8-8-10p8-8---------5-6p5-5-6p5-5-11-9-7----------|
5-------------------------5-6p5-5-6p5-5-----------------|
6-------------------------------------------------------|

Chorus

Post Chorus

outro(accent certain notes)

1-----------------------------------------------------|
2-----------------------------------------------------|
3-----------------------------------4-----------------|
4-4444444444444444-3333333333333333-4-----------------|
5-5555555555555555-4444444444444444-2-----------------|
6-----------------------------------------------------|

please rate this tab well, i worked for like hours on it thanx for taking the time to 
it though.
for any questions e-mail me at horny_devil183@hotmail.com
Comments