Horrorpops - Its Been So Long Chords & Tabs

 

Its Been So Long Chords & Tabs

Horrorpops Chords & Tabs

Version: 1 Type: Bass Tab

Its Been So Long Bass Tab

verse
g------------------------------------------------------|
d------------------------------------------------------|
a---------0-0-2-2--------------------------------------|
e-0-0-0-0----------------------------------------------|
[ Tab from: http://www.guitartabs.cc/tabs/h/horrorpops/its_been_so_long_btab.html ]
Alt. verse or bridge
g------------------------------------------------------|
d------------------------------------------------------|
a-0-0-0-0-2-2-2-2--------------------------------------|
e-----------------0-0-0-0-0-0-0-0----------------------|

Chrous
g------------------------------------------------------|
d------------------------------------------------------|
a---------3-3-3-3-5-5-5-5-0-0-0-0----------------------|
e-0-0-0-0----------------------------------------------|

This is all of it except for the bass behind the solo.  its just too hard to hear on 
to figure out.