Hopesfall - April Left With Silence Chords & Tabs

 

April Left With Silence Chords & Tabs

Hopesfall Chords & Tabs

Version: 1 Type: Tab 0 ratings
1 star 2 stars 3 stars 4 stars 5 stars
comments

April Left With Silence Tab

  Intro:
     
  E---------------------------------------8-/-10-8-6------------
  G-8--999999--6666666--888888--999999--------------------------
  D-*--******--*******--******--******--------------------------
  A-6--777777--4444444--666666--777777--------------------------
  G-------------------------------------------------------------

  Verse:(distorition)
[ Tab from: http://www.guitartabs.cc/tabs/h/hopesfall/april_left_with_silence_tab.html ]
 E------------------------------8-/-10-8-6------------------------
 G-888--99999--66666--111111--------------------------------------
 D-***--*****--*****--******--------------------------------------repeat 5 
 A-666--77777--44444--999999--------------------------------------
 G----------------------------------------------------------------

  E---------------------------------------------------22222-------
  G---------------------------------------------------22222-------
  D---------------------------------------------------00000-------
  A-222222---222222--222222---22222--2222-----22222---22222-------
  G-000000---000000--000000---00000--00000----00000---00000-------

  Little riff: Palm Mute

  E----------------------------------------------------------------
  G-66666--99999---88888---11111-----------------------------------times 4-5
  D-*****--*****---*****---*****-----------------------------------
  A-44444--77777---66666---99999-----------------------------------
  G----------------------------------------------------------------
Comments