Hope Of The States - The Black Amnesias Chords & Tabs

 

The Black Amnesias Chords & Tabs

Hope Of The States Chords & Tabs

Version: 1 Type: Tab 1 rating
1 star 2 stars 3 stars 4 stars 5 stars
comments

The Black Amnesias Tab

   
e-------------0---------------0------
b---------6-------6-------6-------6--
g-------9---9---9---9---9---9---9---9
d-----7---------------7--------------
a------------------------------------
e------------------------------------
                                              } 4 times    
e------------------------------------
b------------6---------------6-------
g--------9-------9-------9-------9---
d------7---7---7---7---7---7---7---7-
a----8---------------8---------------
e------------------------------------





then:

e-------------0-------0-------0------
b---------6-------6-------6-------6--
g-------9---9---9---9---9---9---9---9
d-----7------------------------------
a------------------------------------
e------------------------------------

e------------------------------------
b------------6---------------6-------
g--------9-------9-------9-------9---
d------7---7---7---7---7---7---7---7-
a----8---------------8---------------
e------------------------------------

e-------------0---------------0------
b---------6-------6-------6-------6--
g-------9---9---9---9---9---9---9---9
d-----7---------------7--------------
a------------------------------------
e------------------------------------

e------------------------------------
b------------6---------------6-------
g--------9-------9-------9-------9---
d------7---7---7---7---7---7---7---7-
a----8---------------8---------------
e------------------------------------




[ Tab from: http://www.guitartabs.cc/tabs/h/hope_of_the_states/the_black_amnesias_tab.html ]
e-----------------------------------
b------------0---------------0------
g--------2-------2-------2-------2--
d------3---3---3---3---3---3---3---3
a----5---------------5--------------
e-----------------------------------

e------------------------------------
b------------1---1-----------0---0---
g--------2---------------2-----------
d------2---2---2---2---2---2---2---2-
a----0---------------0---------------
e------------------------------------

e------------0----------------0------
b--------0-------0--------0-------0--
g------2---2---2---2----4---4---4---4
d----3---------------/5--------------
a------------------------------------
e------------------------------------

e------------0-------0-------0-------
b--------0-------0-------0-------0---
g------6---6---6---6---6---6---6---6-
d----7-------------------------------
a------------------------------------
e------------------------------------


then there's the heavy part:

maybe strumming this:


    D5  /  A#5  /  G5  /  A5  


(just following bass but lots happenin-this might not be there atall)



e------------0----------------0------
b--------0-------0--------0-------0--
g------2---2---2---2----4---4---4---4
d----3---------------/5--------------
a------------------------------------
e------------------------------------

e------------0-------0-------0-------
b--------0-------0-------0-------0---
g------6---6---6---6---6---6---6---6-
d----7-------------------------------
a------------------------------------
e------------------------------------
Comments