Hope Of The States - Enemies/friends Chords & Tabs

 

Enemies/friends Chords & Tabs

Hope Of The States Chords & Tabs

Version: 2 Type: Tab 0 ratings
1 star 2 stars 3 stars 4 stars 5 stars
comments

Enemies/friends Tab

   
This is the second track from The Lost Riots and was the bands second single i think fun 
play and is just such an ace song in general

Enemies/Friends

Guitar 1

e-------------------------------------------------------|
B-----------1----------1-------------1-----------1------|
G------2------2----2-----2------2------2----2-----2-----|
D-------------------------------------------------------|
A---3------------3------------3------------3------------|
E-------------------------------------------------------|

e-------------------------------------------------------|
B-----------1----------1-------------1-----------1------|
G------0------0----0-----0------0------0----0-----0-----|
D-------------------------------------------------------|
A---3------------3------------3------------3------------|
E-------------------------------------------------------|

e----------------------------------------------------|
B---------1-----------1---------1---------1----------|
G-----------2-----------2---------2---------2--------|
D-------3-----------3---------3---------3------------|
A-----3----------3----------3---------3--------------|
E----------------------------------------------------|

e-----------------------------------------------------|
B---------1-----------1-----------1---------1---------|
G-----------2-----------2------0----0-----0----0------|
D-------3-----------3---------------------------------|
A-----3----------3----------3---------3---------------|
E-----------------------------------------------------|

Intro: Riff 1 x4 Riff 2 x4 Riff 1 x6 Riff 2 x2 This is played throughout the song

Guitar 2

e-----------------------------------------------------|
B------5----5----5---5/6/5------5-----5--/-------17---|
G---5----5----5---------------5-----5-----/---17------|
D-----------------------------------------------------|
A-----------------------------------------------------|
E-----------------------------------------------------|
[ Tab from: http://www.guitartabs.cc/tabs/h/hope_of_the_states/enemiesfriends_tab_ver_2.html ]
e--------12----12----10----12----10-----------------|
B---13-----13----13----13----13----13---------------|
G---------------------------------------------------|
D---------------------------------------------------|
A---------------------------------------------------|
E---------------------------------------------------|

e---------------------------------------------|
B--5p0---1p0---3p0-------5p0---1p0---3p0------|
G---------------------------------------------|
D---------------------------------------------|
A---------------------------------------------|
E---------------------------------------------|

e----------------------------------------|
B-----1---1---3---1---0---1--------------|
G---2---2---2---2---2---2----------------|
D----------------------------------------|
A----------------------------------------|
E----------------------------------------|

Guitar 1 is played throughout the verse or you can use the chords shown which aren't 
played on the record....

C
Lately in the hospitals
Em
The halfway homes and choking jails
Am
There's people on the mend again
G
With hope to carry on again
C
It makes me feel that something's right
Em
For everyone who tries to fight
Am
No politics or dirty tricks
G
All standing up and shouting out

Am C
All the money in the world won't save you
G F
We're coming home
Am C
All the prisons that you build won't hold us
G F
Just let us go

Then I found a broken heart
With dusty wheezing thing won't start
I'll fix it up and watch it grow
And send it to a happy home
It don't take much to raise a smile
To push yourself the extra mile
I'll stand with you when things go wrong
And lie and say it's not too long

All the money in the world won't save you
We're coming home
All the prisons that you build won't hold us
Just let us go

C Em
Come on people
Am
Keep your friends close
G
Your enemies won't matter in the end
Come on people
Keep your friends close
Your enemies won't matter in the end
In the end
In the end

Courtesy of Thee hope of the states forum
Comments