Hootie And The Blowfish - One Love Chords & Tabs

 

One Love Chords & Tabs

Hootie And The Blowfish Chords & Tabs

Version: 2 Type: Tab 0 ratings
1 star 2 stars 3 stars 4 stars 5 stars
comments

One Love Tab

These are just the chords, someone should try to figure out how to play each individual 
thanks, scott 7373

Verse x5

E: --1----1----1----6--|
B: --3----1----1----8--|
G: --3----2----0----8--|
D: --3----3----0----8--|
A: --1----3----2----6--|
E: --1----1----3----6--|

E: --1----1----1----4--|
B: --3----1----1----4--|
G: --3----2----0----5--|
D: --3----3----0----6--|
A: --1----3----2----6--|
E: --1----1----3----4--|


Chorus x5

E: --6----8----6----6--|
B: --6----10---8----6--|
G: --7----10---8----7--|
D: --8----10---8----8--|
A: --8----8----6----8--|
E: --6----8----6----6--|

Verse x2

E: --1----1----1----6--|
B: --3----1----1----8--|
G: --3----2----0----8--|
D: --3----3----0----8--|
A: --1----3----2----6--|
E: --1----1----3----6--|

E: --1----1----1----4--|
B: --3----1----1----4--|
G: --3----2----0----5--|
D: --3----3----0----6--|
A: --1----3----2----6--|
E: --1----1----3----4--|

Chorus x4
[ Tab from: http://www.guitartabs.cc/tabs/h/hootie_and_the_blowfish/one_love_tab_ver_2.html ]
E: --6----8----6----6--|
B: --6----10---8----6--|
G: --7----10---8----7--|
D: --8----10---8----8--|
A: --8----8----6----8--|
E: --6----8----6----6--|

Bridge x1

E: --3----4----3----4----1--|
B: --4----4----4----4----1--|
G: --5----5----5----5----2--|
D: --5----6----5----6----3--|
A: --3----6----3----6----3--|
E: --3----4----3----4----1--|

Verse x2

E: --1----1----1----6--|
B: --3----1----1----8--|
G: --3----2----0----8--|
D: --3----3----0----8--|
A: --1----3----2----6--|
E: --1----1----3----6--|

E: --1----1----1----4--|
B: --3----1----1----4--|
G: --3----2----0----5--|
D: --3----3----0----6--|
A: --1----3----2----6--|
E: --1----1----3----4--|

Chorus x8

E: --6----8----6----6--|
B: --6----10---8----6--|
G: --7----10---8----7--|
D: --8----10---8----8--|
A: --8----8----6----8--|
E: --6----8----6----6--|


Verse x1

E: --1----1----1----6--|
B: --3----1----1----8--|
G: --3----2----0----8--|
D: --3----3----0----8--|
A: --1----3----2----6--|
E: --1----1----3----6--|

E: --1----1----1----4--|
B: --3----1----1----4--|
G: --3----2----0----5--|
D: --3----3----0----6--|
A: --1----3----2----6--|
E: --1----1----3----4--|
Comments