Hootie And The Blowfish - One Love Chords & Tabs

 

One Love Chords & Tabs

Hootie And The Blowfish Chords & Tabs

Version: 1 Type: Tab 0 ratings
1 star 2 stars 3 stars 4 stars 5 stars
comments

One Love Tab

hey, i saw that there wasn't n e tabs for this song n e where on the internet so i 
to figure it out, this was the best i could come up with...

Capo 3!!

Verse

e-------------3----x--3--x-x--3----3-------------------------------------|
B-------------3----x--3--x-x--3----3-------------------------------------|
G-------------0----x--2--x-x--0----0-------------------------------------|
D---------------------0--x-x--2----2-------------------------------------|
A-------0h2-----------0--x-x--2----3----all-these-notes-are-emphasized---|
E--3-3-------------------x-x--0----0-------------------------------------|
[ Tab from: http://www.guitartabs.cc/tabs/h/hootie_and_the_blowfish/one_love_tab.html ]
pre chorus-

e--3----------------------------------|
B--3----------------------------------|
G--0--X6------------------------------|
D--2----------------------------------|
A--3----------------------------------|
E--0----------------------------------|

Chorus

e-3-----3-----3-----3---------------------------------------------|
B-3-----3-----1-----3---------------------------------------------|
G-0-----2-----0-----0---------------------------------------------|x 4
D-0-----0-----2-----0---------------------------------------------|
A-x-----0-----3-----x---------------------------------------------|
E-3-----0-----3-----3---------------------------------------------|


Bridge

dont have the bridge yet, i known it starts on Am so i think u could figure it out, ill 
it in at some piont, just a matter of time


so theres the just of the song, not to hard so im suprised no ones figured it out yet, 
its a great song by an already great band, enjoy!
Comments