Hootie And The Blowfish - Not Even The Trees Chords & Tabs

 

Not Even The Trees Chords & Tabs

Hootie And The Blowfish Chords & Tabs

Version: 1 Type: Tab 0 ratings
1 star 2 stars 3 stars 4 stars 5 stars
comments

Not Even The Trees Tab

   
##################################################################################
# This file is the author's own work and represents their interpretation of the  #
# song. You may only use this file for private study, scholarship, or research.  #
##################################################################################

@SONG: * NOT EVEN THE TREES
(tabbed by by Marc Virata ,
 Steve Vetter ,
 randell@heinous.music.uiowa.edu,
 and Paul Hutchinson )

Intro: |Dsus2 |A/D    |  x2

Chords: Dsus2-xx0230  A/D-xx0220  Bm-x24432     A-x02220    G-320033     
        F#m-244222    Em-022000   Asus-x02230  A7-x02223  Bm7-x24235
...........

Intro riff:
  +   +   +   +     +   +   +   +
|-----0------0----|-----0------0----|
|-------3---3--3--|-------2---2--2--|
|---2------2-----2|---2------2-----2|
|-0-------0-------|-0-------0-------|
|-----------------|-----------------|
|-----------------|-----------------|
[ Tab from: http://www.guitartabs.cc/tabs/h/hootie_and_the_blowfish/not_even_the_trees_tab.html ]
This is played over the first half of the verses, twice before each verse,
and four times at the end of the song. 
The following is played over the second half of the first verse:
  +   +   +   +     +   +   +   +     +   +
|-----2------2----|-----0------0----|-3----
|-------3------3--|-------2------2--|-3----
|---4-------4-----|---2-------2----0|-0----
|----------4------|----------2------|-0----
|-2-------2-------|-0-------0-------|-2----
|-----------------|-----------------|-3----
   
At the end of the other verses, going into the chorus, rather than holding
the G chord, play the following:
  +   +   +   +     +   +   +       +         +   +   +       +
|-----3------3----|-------------------------|-3-------3-3-3-3-----3---|
|-------3---3--3--|-3-------3-3-3-3---3-----|-3-------3-3-3-3-----3---| 
|-----------------|-2-------2-2-2-2---2-----|-0-------0-0-0-0-----0---| etc
|---0------0------|-0-------0-0-0-0---0-----|-0-------0-0-0-0-----0---|
|-----------------|-------------------------|-------------------------|
|-3-------3-------|---------------------2---|-3-------3-3-3-3-----3---|

Note that after the first verse, there are three guitars on the recording
doing their own thing - but since there isn't really anything fancy enough
to justify wasting a lot of space tabbing them all out, the chord 
formations shown above make a reasonable arrangement for one guitar. 
However, do note that over the verse riff, one of the other guitars
(an acoustic) uses these chords: Dsus2-xx0235  A/D-xx0225


Notation used:

 + = Beat marker
 h = Hammer-on
 p = Pull-off
 b = Bend
 r = Release bend
 / = Slide
 ~ = Vibrato
.........

...............
Comments