Hootie And The Blowfish - Let Her Cry Chords & Tabs

 

Let Her Cry Chords & Tabs

Hootie And The Blowfish Chords & Tabs

Version: 1 Type: Bass Tab 0 ratings
1 star 2 stars 3 stars 4 stars 5 stars
comments

Let Her Cry Bass Tab

Band - Hootie And The Blowfish
Song: - Let Her Cry

Tuning: standard

Intro:
G|-----------------------------------------------------------------|
D|------------------7---7---7---------5---5---5--------------------|
A|-------------5--5---5---5---5--3--3---3---3---3------------------|
E|--13\3--3-5-------------------------------------3~-0h3--0h1h2h3--|
[ Tab from: http://www.guitartabs.cc/tabs/h/hootie_and_the_blowfish/let_her_cry_btab.html ]
Verse:
G|-----------------------------------------------------------------|
D|-----------------7---7---7---------5---5---5---------------------|
A|------------5--5---5---5---5--3--3---3---3---3-------------------|
E|---3--3-3-5------------------------------------3~--0h3-0h1h2h3---|

Chorus:
G|---------------------------------------------------------------------------|
D|-------------------------------------------------7---7---7---5---5---5-----|
A|--3--3-3---------3--3-3/7--5--3--3-3---------5-5---5---5---3---3---3-------|
E|---------3--3-3-----------------------3--3-3---------------------------3~--|
Comments