Hootie And The Blowfish - Innocence Chords & Tabs

 

Innocence Chords & Tabs

Hootie And The Blowfish Chords & Tabs

Version: 1 Type: Tab 0 ratings
1 star 2 stars 3 stars 4 stars 5 stars
comments

Innocence Tab

   
Artist: Hootie and the Blowfish
Title: Innocence
Album: Hootie and the Blowfish
Tabbed By: Julian S
Intro/Verse
E------------------3---------------------------3-------------------|
B---------------------3------------------------3-------------------|
G-----0------------------0---------0-------------------------------|
D---------0----------------------------2---------------------------|
A-------------2-----------------3---------3------------------------|
E--3---------------------------------------------------------------|

Note: For the verse, position your fingers as a G and then some kind of C:
[ Tab from: http://www.guitartabs.cc/tabs/h/hootie_and_the_blowfish/innocence_tab.html ]
E------3------------            E--------3--------------|
B------3-----------            B--------3---------------|
G------0-----------            G--------0---------------|
D------0-----------            D--------2---------------|
A------2-----------            A--------3---------------|
E------3-----------            E--------x---------------|

Chorus
E--0-------3---------2-------0---------------------------|
B--0-------3---------2-------1---------------------------|
G--0-------0---------4-------0---------------------------|
D--2-------0---------4-------2---------------------------|
A--2-------2---------2-------3---------------------------|
E--0-------3---------x-------x-------3--2--0-------------|
   Em      G         B       C

Bridge
E--0-----0-------0------0-------0-------0-----------------------|
B--1-----1-------0------1-------1-------1-----------------------|
G--2-----0-------0------0-------2-------0-----------------------|
D--2-----2-------0------2-------2-------2-----------------------|
A--0-----3-------2------3-------0-------3-----------------------|
E---x-----x------3------x-------x-------x-----------------------|
   Am     C      G6     C       Am      C
Comments