Hootie And The Blowfish - I'm Goin' Home Chords & Tabs

 

I'm Goin' Home Chords & Tabs

Hootie And The Blowfish Chords & Tabs

Version: 1 Type: Tab 0 ratings
1 star 2 stars 3 stars 4 stars 5 stars
comments

I'm Goin' Home Tab

   
#----------------------------------PLEASE NOTE---------------------------------#
#This file is the author's own work and represents their interpretation of the #
#song. You may only use this file for private study, scholarship, or research. #
#------------------------------------------------------------------------------#
@SONG: * I'M GOIN' HOME
(tabbed by randell@heinous.music.uiowa.edu,
 Steve Vetter 
 and Paul Hutchinson )

Intro:  |E   |G#m  |F#m   |E    |   x3 (Band in 2nd time)

Chords: E-022100  G#m-466444  F#m-244222  B-x24442  D-x00232

NB: Although I think the chord formations shown above are those used on the 
recording, if you are playing this by yourself you can make the chorus 
sound really big by using B-799800  D-x50770.  :-)
..................
Intro riff:
  +   +   +   +        +  +  +     +      +  +   +   +      +    +    +  +
|--------------------|------------------|-----------------|-----------------|
|--------------------|------------------|-----------------|-----------------|
|--------------------|-----------9-9----|--------9--------|-----------------|
|-----9---9---9--9h11|---9---9h11----11-|---9--9h11-9-----|-9---------------|
|/11----11--11-------|------------------|------------11-9-|-11-9------------|
|--------------------|------------------|-----------------|------12-9-12----|

  +   +   +   +        +  +  +     +      +  +   +   +      +   +    +  +
|--------------------|------------------|-----------------|-----------------|
|--------------------|------------------|-----------------|-----------------|
|--------------------|-----------9-9----|----------9-9----|-9---9-11b13--r11|
|-----9---9---9--9h11|---9---9h11----11-|---9--9h11----11-|---11------------|
|/11----11--11-------|------------------|-----------------|-----------------|
|--------------------|------------------|-----------------|-----------------|
[ Tab from: http://www.guitartabs.cc/tabs/h/hootie_and_the_blowfish/im_goin_home_tab.html ]
Verse:
  + + + +   + + + +   + + + +   + + + +
|---------|---------|---------|---------|
|---------|---------|---------|---------| 
|-9-----\8|--------9|---------|---------|
|---------|--------9|h11-----9|---------|
|---------|---------|---------|---------|
|---------|---------|---------|---------|

Now play bars 1-4 of the intro riff. This is followed by:
  + + + +   + + + +   + + + +   + + + +
|---------|---------|---------|---------|
|---------|---------|---------|---------| 
|---------|--------9|---------|---------|
|---------|--------9|h11-----9|---------|
|--------9|h11------|---------|---------|
|---------|---------|---------|---------|
and then bars 5-8 of the intro riff.

Just play chords for the chorus. The link to v2 is just the intro riff. v2
is the same as the first half of v1.

Solo:                                  (hold bend)
  +   +   +   +        +   +   +   +         +    +     +     +   
|--------------------|---------------------|------------------------|
|--------------------|---------------------|---9--9--9--9--9--9--9--|
|--------------------|---9-9---9---9--11b13|---13-13-13-13-13-13-13-|
|-----9---9---9--9h11|-------11--11--------|------------------------|
|/11----11--11-------|---------------------|------------------------|
|--------------------|---------------------|------------------------|

  +        +    +   +        +   +       +    +     +   +       +    +   
|--------------------------|----------------------|------------------12--|
|-9------------------------|-----9h10p9-------12--|-----9h10p9-----------|
|-13--r11p9---9---------9--|---9---------11p9-----|---9---------11p9-----|
|----------11-----9-9h11---|----------------------|----------------------|
|--------------------------|----------------------|----------------------|
|--------------------------|----------------------|----------------------|

  +       +    +    +         +       +         +   +
|--11b12-r11-9--------------|------------------------------|
|--------------12-9-9h10p9--|-----12-----------------------|
|---------------------------|11b13----13b11-9-----------9--|
|---------------------------|---------------------9-9h11---|
|---------------------------|------------------------------|
|---------------------------|------------------------------|
.............
Comments