Hootie And The Blowfish - Hold My Hand Chords & Tabs

 

Hold My Hand Chords & Tabs

Hootie And The Blowfish Chords & Tabs

Version: 1 Type: Tab 0 ratings
1 star 2 stars 3 stars 4 stars 5 stars
comments

Hold My Hand Tab

   
##################################################################################
# This file is the author's own work and represents their interpretation of the  #
# song. You may only use this file for private study, scholarship, or research.  #
##################################################################################

@SONG: * HOLD MY HAND
(tabbed by Paul Hutchinson )

Intro:
|Bsus2 E    |  x4


Chords: Acoustic guitar: Bsus2-x24422   E-022100   F#-x 9 11 11 11 x
                         E*-x7999x      B-799877

        Electric guitar (mostly): F#-x 9 11 11 x x   E*-x799xx   B-x998xx
...............

The riff played by the electric comes in on the line "With a little 
peace..", is played throughout the verses, and consists of the following:
(the notes in brackets aren't played all the time)

  +       +       +       +         +       +        +       +     
|---------------------------------|----------------------------------|
|-------7-----9-------------------|-------7--------------------------|
|/8--------(8)9-------------------|/8--------(8)9--------------------|
|---------------------------------|-------------9--------------------|
|---------------------------------|----------------------------------|
|---------------------------------|----------------------------------|

During the bridge ("Cause I got..") and chorus ("Hold my hand..") you 
just strum the chords as shown above. 
The solo consists of:
[ Tab from: http://www.guitartabs.cc/tabs/h/hootie_and_the_blowfish/hold_my_hand_tab.html ]
  +       +       +       +         +       +        +       +     
|---------------------------------|----------------------------------|
|/7-----9-----7-------------------|-7h9---9--------------------------|
|--------------------/8---7h8-----|---------7h8----------------------|
|---------------------------------|-------------9~~~~~~~~~~~~~\\\\---|
|---------------------------------|----------------------------------|
|---------------------------------|----------------------------------|

  +       +       +       +         +       +        +       +     
|---------------------------------|----------------------------------|
|---------------------------------|-7h9---9--------------------------|
|---------7-8-9-------9---7h8---8-|---------7h8----------------------|
|/9-----9-------------------------|-------------9~~~~~~~~~~~~~-------|
|---------------------------------|----------------------------------|
|---------------------------------|----------------------------------|

         (Hold bend)
  +       +       +       +         +       +        +       +     
|---------------------------------|----------------------------------|
|---------------7-----------------|----------------------------------|
|-----4---4-6b8---8r6-4-------4~~~|~~~~~~~~~~------------------------|
|-4/6---6---------------6-4h6-----|-----------6----6-4---4-----------|
|---------------------------------|------------------------6---6-4---|
|---------------------------------|----------------------------------|

  +       +       +       +         +         +        +       +     
|---------------------------------|------------------------------------|
|-------------------------4---4h5-|p4-5b7r5p4--------------------------|
|-----------------4---4h6---6-----|-----------6b8------r6-4--------4---|
|---------4---4h6---6-------------|------------------------6-4-4h6-----|
|-----4h6---6---------------------|------------------------------------|
|---------------------------------|------------------------------------|
.................
Comments