Hoobastank - What Happened To Us Chords & Tabs

 

What Happened To Us Chords & Tabs

Hoobastank Chords & Tabs

Version: 2 Type: Tab 0 ratings
1 star 2 stars 3 stars 4 stars 5 stars
comments

What Happened To Us Tab

   
Band- Hoobastank
Song- What Happened To Us

Tuning: Drop D - D A D G B e

Intro/Bridge:    Intro - 0:05     Bridge - 2:30
e|---------------------------------------------------|
B|---------------------------------------------------|
G|------5-----5-----5-----5-----5-----5-----5-----5--|
D|--------7-7---------7-7---------7-7---------7-7----|
A|--------------8-8---------7-7---------7-7----------|
D|--0-0----------------------------------------------|

Verse: same as Intro/Bridge but with an acoustic. 0:26

Chorus: 1:06
e|---------------------------------------------------|
B|--66666666-----------------------------------------|
G|--55555555-----------------------------------------|
D|--33333333---0--0--0----0--0--0----3\2p0--3\2p0----|
A|-------------0--0--0----0--0--0----3\2p0--3\2p0----|
D|-------------0--0--0----0--0--0----3\2p0--3\2p0----|
PM             x  x       x  x
[ Tab from: http://www.guitartabs.cc/tabs/h/hoobastank/what_happened_to_us_tab_ver_2.html ]
Chorus: 1:12
e|---------------------------------------------------|
B|---------------------------------------------------|
G|-------------------3333333333333333----------------|
D|--5555555555555555-3333333333333333----------------|
A|--5555555555555555-1111111111111111----------------|
D|--5555555555555555---------------------------------|

Outro: 3:37
e|--3-3-3-3-3-3-3-3-3-3-3-3-3-3-3-3-5-5-5-5-5-5-5-5-5-5-5-5-5-5-5-5--|
B|-------------------------------------------------------------------|
G|-------------------------------------------------------------------|
D|-------------------------------------------------------------------|
A|-------------------------------------------------------------------|
D|-------------------------------------------------------------------|

e|-------------------------------------------------------------------|
B|--3-3-3-3-3-3-3-3-3-3-3-3-3-3-3-3-5-5-5-5-5-5-5-5-5-5-5-5-5-5-5-5--|
G|-------------------------------------------------------------------|
D|-------------------------------------------------------------------|
A|-------------------------------------------------------------------|
D|-------------------------------------------------------------------|
Comments