Hoobastank - Up And Gone Chords & Tabs

 

Up And Gone Chords & Tabs

Hoobastank Chords & Tabs

Version: 2 Type: Tab 0 ratings
1 star 2 stars 3 stars 4 stars 5 stars
comments

Up And Gone Tab

   
Up And Gone-Hoobastank
Hoobastank
my tab rip off-z:
http://www.angelfire.com/tx4/tabz/tabs.html


Open E:
E B E G# B E

( ) = artificial harmonics
< > = harmonics

Intro: (Bass arr. for gtr.)

Fig. 1

g-----------11---------9---------13----------
d---11---11----11---11---11---11----11---11--
a-9----9----------9---------9----------9-----  x2
e--------------------------------------------

g---------9-------9-------11--------
d---9---9---9---9---9---9----9---9--
a-7---7-------7-------7--------7----
e-----------------------------------

g--------------------------------------
d---------7-----------------10---------
a---7---7---7---7---10---10----10---7--
e-5---5-------5---8----8----------8----

Verse 1: w/ Fig. 1

e-----------------------------------------------------------------
b-----------------------------------------------------------------
g-------------------------------------------------------(0)--(0)--
e-2-2-------------------------------------------------------------
b-2-2-------------------------------------------------------------
e-2-2-------------------------------------------------------------

e-----------------------------------
b---------------------------3-------
g-------------------------2---2b~~~-
e-------------------------0---------
b-0h2-2p0-2---2-2-2p0-2p0-0---------
e-0h2-2p0-2---2-2-2p0-2p0-0---------
[ Tab from: http://www.guitartabs.cc/tabs/h/hoobastank/up_and_gone_tab_ver_2.html ]
e-----------------------------------
b---------------------------3-------
g-0-----------------------2---2b~~~-
e-0-----------------------0---------
b-0h2-2p0-2---2-2-2p0-2p0-0---------
e-0h2-2p0-2---2-2-2p0-2p0-0---------

e-----------------------------------------------------------------
b-------------5-5-5-5-5-------------------------------------------
g-0-----------3-3-3-3-3-------------------------------------------
e-0-----------0-0-0-0-0--------------7----7--7---10---10-10-1010--
b-0---0-0-0---0-0-0-0-0--------------5----5--5----8----8--8--8-8--
e-0---0-0-0---0-0-0-0-0--(2.75)------5----5--5----8----8--8--8-8--

Verse 2: w/ phaser and echo-delay

e-----------------------------------------------------------------
b-----------------------------------------------------------------
g-----------------------------------------------------------------
e-----2---2-----4---4---4---4---4-----2---2-----4---4---4---4---4-
b---2---2---2-----------------------2---2---2---------------------
e-2-----------2---2---2---2---2---2-----------2---2---2---2---2---

e---------------------------------------5----------------8--------
b---------------------------------------5----------------8--------
g---------------------------------------5----------------8--------
e-----2---2-----4---4---4---4---4-------7---------------10--------
b---0---0---0---------------------------5----------------8--------
e-0-----------0---0---0---0---0-----5---5----------8-----8--------

before verse 5

Bass:

g-----------------------------------------------------------------
d---------4---------------4---------------4---------------4-------
a---4---4---4---4---4---4---4---4---4---4---4---4---4---4---4---4-
e-2---2-------2---2---2-------2---2---2-------2---2---2-------2---


thatís about all

trevor jones
timmy91199@yahoo.ca
Comments