Hoobastank - Up And Gone Chords & Tabs

 

Up And Gone Chords & Tabs

Hoobastank Chords & Tabs

Version: 1 Type: Bass Tab 0 ratings
1 star 2 stars 3 stars 4 stars 5 stars
comments

Up And Gone Bass Tab

Band: Hoobastank
Song: Up and Gone
CD: Hoobastank
intro/verse
G||-------------11---------9----------13---------|
D||----11----11----11---11----11---11-----11---11|
A||-9-----9-----------9---------9-----------9----|X2 then
E||----------------------------------------------|

G||------------9----------7---------11-------|
D||----9----9----9------9----9---9-----9---9-|
A||-7-----7-----------7--------7---------7---|
E||------------------------------------------|
[ Tab from: http://www.guitartabs.cc/tabs/h/hoobastank/up_and_gone_btab.html ]
G||----------5---------------3----|
D||----7---7---7---7---5---5-----5|
A||-5----5-------5---3---3-----3--|
E||-------------------------------|


chrous and hard parts
G||--------------------------|
D||----------------------(2)-|
A||--------------------------|X2
E||-0h2-2-0-2--0h2-2-0-2-(0)-|

G||-----------------------------------|
D||-----------------------------------|
A||----(7)-(7)------------------------|
E||-0-0-0-0-0-0-0-0h5-5-5-5/-8-8-8-8--|

part before last chorus and all that

G||------------|
D||------------|
A||---4---4---4|do a few times i guess
E||-4---4---4--|
Comments