Hoobastank - Unaffected Chords & Tabs

 

Unaffected Chords & Tabs

Hoobastank Chords & Tabs

Version: 1 Type: Bass Tab 0 ratings
1 star 2 stars 3 stars 4 stars 5 stars
comments

Unaffected Bass Tab

Standard Tuning 

starts at about 00:11

verse 1
        It never seems to be ...
G[--------------------------------------------]
D[-------7--3-------------3-------------------]   (2x)
A[-5--5---------3--0--1-1--0-3----------------]
E[--------------------------------------------]

G[--------------------------------------------]
D[--------------------------------------------]
A[--------------------------------------------]
E[-1-1-1-1--1-1-1-1--13-13-13-13--13-13-13-13-]

chorus 1
G[--------------------------------------------]
D[--------------------------------------------]
A[--------------------------------------------]
E[-5-5-5-5--5-5-5-5--3-3-3-3--3-3-3-3---------]

G[--------------------------------------------]
D[--------------------------------------------]   (2x)
A[--------------------------------------------]
E[-0-0-0-0--0-0-0-0--1-1-1-1--1-1-1-1---------]
verse 2
G[--------------------------------------------]
D[-------7--3-------------3-------------------]   (2x)
A[-5--5---------3--0--1-1--0-3----------------]
E[--------------------------------------------]

G[--------------------------------------------]
D[--------------------------------------------]
A[--------------------------------------------]
E[-1-1-1-1--13-13-13-13-----------------------]

chorus 2
G[--------------------------------------------]
D[--------------------------------------------]
A[--------------------------------------------]
E[-5-5-5-5--5-5-5-5--3-3-3-3--3-3-3-3---------]

G[--------------------------------------------]
D[--------------------------------------------]   (2x)
A[--------------------------------------------]
E[-0-0-0-0--0-0-0-0--1-1-1-1--1-1-1-1---------]

G[--------------------------------------------]
D[--------------------------------------------]
A[----------7-5-------------------------------]
E[-5-5-5-5-------8-7--3-3-3-3--3-3-3-3--------]

G[--------------------------------------------]
D[--------------------------------------------]
A[--------------------------------------------]
E[-5-5-5-5--5-5-5-5---------------------------]
[ Tab from: http://www.guitartabs.cc/tabs/h/hoobastank/unaffected_btab.html ]
1st ending
G[--------------------------------------------]
D[--------------------------------------------]
A[--------------------------------------------]
E[-1-1-1-1--3-3-3-3---------------------------]

G[--------------------------------------------]
D[--------------------------------------------]
A[----------7-5-------------------------------]
E[-5-5-5-5-------8-7--3-3-3-3--3-3-3-3--------]

G[--------------------------------------------]
D[--------------------------------------------]
A[--------------------------------------------]
E[-5-5-5-5--5-5-5-5---------------------------]

2nd ending
G[--------------------------------------------]
D[--------------------------------------------]
A[--------------------------------------------]
E[-1-1-1-1--1-1-1-1--1-1-1-1--1-1-1-1---------]

BACK TO CHORUS

G[--------------------------------------------]
D[--------------------------------------------]
A[----------7-5-------------------------------]
E[-5-5-5-5-------8-7--3-3-3-3--3-3-3-3--------]

G[--------------------------------------------]
D[--------------------------------------------]
A[--------------------------------------------]
E[-5-5-5-5--5-5-5-5---------------------------]

1st ending
G[--------------------------------------------]
D[--------------------------------------------]
A[--------------------------------------------]
E[-1-1-1-1--3-3-3-3---------------------------]

G[--------------------------------------------]
D[--------------------------------------------]
A[----------7-5-------------------------------]
E[-5-5-5-5-------8-7--3-3-3-3--3-3-3-3--------]

G[--------------------------------------------]
D[--------------------------------------------]
A[--------------------------------------------]
E[-5-5-5-5--5-5-5-5---------------------------]

2nd ending
G[--------------------------------------------]
D[--------------------------------------------]
A[--------------------------------------------]
E[-1-1-1-1--1-1-1-1--1-1-1-1--1-1-1-1---------]

Guitar Bridge

                                    THE END!
                                
                              
                                 by cokemachine2
Comments